PrimaNota.ru - самый крупный в мире бесплатный архив песенных текстов, аккордов, табулатур и нот


Catalepsy - Immolate - таба, видео

Регистрация Запомнить меня
Войти через:  Facebook Google Twitter Vk Yandex Mail.ru

Catalepsy - Immolate - таба, видео

Печатать
Просмотров: 129
Band: Catalepsy
Song: Immolate
Album: Iniquity
Tuning: AEADF#BE
Tabber: I<3Hobos

|---------------------------------------------------|
|---------------------------------------------------|
|---------------------------------------------------|
|---------------------------------------------------|
|---------------------------------------------------|
|-1-1-2-1-3-2-4-3-2---1-1-2-1-3-2-4-3-5-------------|
|-1-1-2-1-3-2-4-3-2---1-1-2-1-3-2-4-3-5-------------|

tremolopicking
|--------------------------------------------------------------|
|--------------------------------------------------------------|
|--------------------------------------------------------------|
|--------------------------------------------------------------|
|--------------------------------------------------------------|
|--------------------------------------------------------------|
|-111222111333222444333222-111222111333222444333555------------|

breakdown
|-----------------------------------------------------|
|-----------------------------------------------------|
|-----------------------------------------------------|
|-----------------------------------------------------|
|-----------------------------------------------------|
|-1-1-0-1-2-1-0-1-0-1-2-1-0-1-2-0-1-------------------|
|-1-1-0-1-2-1-0-1-0-1-2-1-0-1-2-0-1-------------------|

transition
|----------------------------------------|
|----------------------------------------|
|----------------------------------------|
|----------------------------------------|
|-1-1----1----1-1----1-2-3-4-5-----------|
|-1-1----1----1-1----1-2-3-4-5-----------|
|-1-1----1----1-1----1-2-3-4-5-----------|

tremolo riff
|-------------------------------------------------------------------|
|-------------------------------------------------------------------|
|-------------------------------------------------------------------|
|-------------------------------------------------------------------|
|-------------------------------------------------------------------|
|-----------444----------444-----555----------------3-2-1-2---------|
|-112321233-----11232121-----111-----111-112321212--3-2-1-2---------|


buildup

guitars go back and forth with
|-------------------------------------------------------------------|
|-------------------------------------------------------------------|
|-------------------------------------------------------------------|
|-------------------------------------------------------------------|
|-------------------------------------------------------------------|
|-3-2-1-2------3-2-1-2----------------------------------------------|
|-3-2-1-2------3-2-1-2----(bassguitar)----(drumfill)----------------|

breakdowns easy

thrashy riff
|--------------------------------------------|
|--------------------------------------------|
|--------------------------------------------|
|--------------------------------------------|
|--------------------------------------------|
|-----5---8-------1---5----------------------|
|-0-7---7---4-0-4---4---1-2h5p2-1h4p1--------|  

same thing then the higher progression is
|-------------------|
|-------------------|
|-------------------|
|-------------------|
|-------------------|
|----------1h4p1----|
|-2h5p2-------------|

blastbeat kinda riff
|----------------------------------------------------------------------------|
|----------------------------------------------------------------------------|
|----------------------------------------------------------------------------|
|----------------------------------------------------------------------------|
|----------------------------------------------------------------------------|
|----1h4p1-------4h7p4-------1-4-1----1h4p1-------4h7p4--------1-4-5---------|
|-00-------2h5p2-------5h8p5-1-4-1-00-------2h5p2-------5h8p5--1-4-5---------|

|----------------------------------------------------------------------------|
|----------------------------------------------------------------------------|
|----------------------------------------------------------------------------|
|----------------------------------------------------------------------------|
|---------------------------------------------------------------5h8p5-8h11p8-|
|----1h4p1-------4h7p4-------1-4-1-1h4p1-------4h7p4------4h7p4--------------|
|-00-------2h5p2-------5h8p5-1-4-1-------2h5p2-------5h85--------------------|


ending breakdown
|---------------------------------------|
|---------------------------------------|
|---------------------------------------|
|---------------------------------------|
|---------------------------------------|
|-1-1-1-1----11---1-1-1----111-11-------|
|-0-0-0-0----00---0-0-0----000-00-------|

Добавлено: 23.03.2012
Другие материалы по этой песне:
  • Аккорды и текст

Страница создана 23.03.2012
http://primanota.ru/catalepsy/immolate-chords.htm
Привет, Гость.
Предлагаем пройти революционный курс по гитаре.
Подарок от PrimaNota.Ru, забирай!