PrimaNota.ru - самый крупный в мире бесплатный архив песенных текстов, аккордов, табулатур и нот


Catalepsy - Dethroat - таба, видео

Регистрация Запомнить меня
Войти через:  Facebook Google Twitter Vk Yandex Mail.ru

Catalepsy - Dethroat - таба, видео

Печатать
Просмотров: 190
Band: Catalepsy (myspace.com/catalepsy)
Song: Dethroat
Tuning: Drop A
Tabber:I<3Hobos


|-------------------------------------------------------------------------------------------|
|-------------------------------------------------------------------------------------------|
|-------------------------------------------------------------------------------------------|
|-------------------------------------------------------------------------------------------|
|-------------------------------------------------------------------------------------------|
|-3-2-1------1h4-3-2-1------1h4-3-2-1-----1h4---3-2-1-----1h4-3-2-1------1h4-3-2-3-2-1------|
|-3-2-1-1h4------3-2-1-1h4------3-2-1-1h4-----0-3-2-1-1h4-----3-2-1--1h4-----3-2-3-2-1------|

third guitar comes in with second guitar doing breakdown over that with the 3-2-1 chugs

|----------------------------------------------------------------------|
|----------------------------------------------------------------------|
|----------------------------------------------------------------------|
|----------------------------------------------------------------------|
|-12-000-12-000-12-11-12-8h11p8------8---11h14p11------11h14h11--------|
|------------------------------10--10-------------13--13---------------|
|--------------------------------8------------------11-----------------|

alternate that riff ending with 3-2-1, do accents with second guitar player

“YOU'RE FUCKING DONE” transition
|-------------------------------------------------------------------------|
|-------------------------------------------------------------------------|
|-------------------------------------------------------------------------|
|-------------------------------------------------------------------------|
|-------------------------------------------------------------------------|
|-3-2-1--0--------1--------0--------1--------0--------1-------0-------1---|
|-4-3-2--0--------1--------0--------1--------0--------1-------0-------1---|

tremolo riff
|----------------------------------|
|----------------------------------|
|----------------------------------|
|----------------------------------|
|-----111--------------------------|
|---------333---------444----------|
|-000---------444-111-----111------|





Thrashy riff
|-----------------------------------------------------------------|
|-----------------------------------------------------------------|
|-----------------------------------------------------------------|
|-----------------------------------------------------------------|
|-----1--1----------4--4-----------1--1----------4---4------------|
|----------3---3---------3---3----------3---3-----------3--4------|
|--00--0-----0---00--0-----0----00--0-----0---00---0--0-----------|

breakdown is easy
Добавлено: 22.05.2012
Другие материалы по этой песне:
  • Аккорды и текст

Страница создана 22.05.2012
http://primanota.ru/catalepsy/dethroat-chords.htm
Привет, Гость.
Предлагаем пройти революционный курс по гитаре.
Подарок от PrimaNota.Ru, забирай!