PrimaNota.ru - самый крупный в мире бесплатный архив песенных текстов, аккордов, табулатур и нот


Catalepsy - Architect - таба, видео

Регистрация Запомнить меня
Войти через:  Facebook Google Twitter Vk Yandex Mail.ru

Catalepsy - Architect - таба, видео

Печатать
Просмотров: 171
Уроки эстрадного вокала в Санкт-Петербурге
Band: Catalepsy
Song: Architect
Album: Iniquity/Godless EP
Tabber: I<3Hobos
Tuning: A#EADF#B
.= Palm Mute

0:00-0:12
|-----------0--0--0--0--0--0-------------------|
|-----------7--7--7—-7—-7--7-------------------|
|----------10-10-10-10-10-10-------------------|
|----------------------------------------------|
|-----------------------------1-000-3-1-4------|
|-000000----------------------1-000—3-1-4------|
  ......                        ...
0:12-0:26
|----------------------------------------------------------------------------------|
|----------------------------------------------------------------------------------|
|----------------------------------------------------------------------------------|
|-------------------------------0h1h4----------------------------------------------|
|-1-0-0-0-0--3-1-4---1-0-0-0-0--------0h1h4--------1-0-0-0-0--3-1-4--1-0-0-0-0-----|
|-1-0-0-0-0--3-1-4---1-0-0-0-0--------------0h1h4--1-0-0-0-0--3-1-4--1-0-0-0-0-----|
    . . . .            . . . .                       . . . .           . . . .
------------------------|
0h7h10--0h6h9-----------|
-------------0h7h10-----|
------------------------|
------------------------|
------------------------|
0:26-0:39
|--------------------------------------------------------------------------------|
|----------7----------7-------------------------------------------7--8--9--8-----|
|---------10---------10------------------------------------------10-11-12-11-----|
|--------------------------------------------------------------------------------|
|-000000------000000-----000-----------------------------------------------------|
|-000000------000000-----000----x4 but last one end with-000-000-----------------|
  ......      ......     ...                             ... ...

0:39-0:52
|---------------------------------------------------------|
|------------7-------------7------7h10-6h9-6h9------------|
|-----------10------------10-------------------7h10-------|
|---------------------------------------------------------|
|-000000------000000----000-000---------------------------|
|-000000------000000----000-000---------------------------|
  ......      ......    ... ...

0:52-0:53
|-00000000-----|
|-66666666-----|
|-99999999-----|
|-00000000-----|
|--------------|
|--------------|

0:54-1:11
|---------------------------------------------------------------------------|
|---------------------------------------------------------------------------|
|---------------------------------------------------------------------------|
|-1------1-------1-----1---------------1------1-----1-----1-----2h5---------|
|-1-2-1--1--2-1--1-2-1-1--2-1----------1-2-1--1-2-1-1-2-1-1-2-1-----1h4-----|
|---2-1-----2-1----2-1----2-1--3-1-4-0---2-1----2-1---2-1---2-1-------------|
    . .     . .    . .    . .            . .    . .   . .   . .
guitar 2 just  holds open chord during buildup

1:25-1:38
|------------------------------------------------|
|------------------------------------------------|
|---6h9-------------------6h9--------------------|
|-------5h8-------------------5h8----------------|
|-0----------0-0000-0-0------------0--000-000----|
|-0----------0-0000-0-0------------0--000-000----|
  .          . .... . .            .  ... ...

don't need tab for the rest of the breakdown
Добавлено: 26.05.2012
Другие материалы по этой песне:
  • Аккорды и текст

Страница создана 29.02.2012
http://primanota.ru/catalepsy/architect-chords.htm
Привет, Гость.
Предлагаем пройти революционный курс по гитаре.
Подарок от PrimaNota.Ru, забирай!