PrimaNota.ru - самый крупный в мире бесплатный архив песенных текстов, аккордов, табулатур и нот


Cat Power - Water & Air - текст песни, таба, видео

Регистрация Запомнить меня
Войти через:  Facebook Google Twitter Vk Yandex Mail.ru

Cat Power - Water & Air - текст песни, таба, видео

Печатать
Просмотров: 221
Авторы текста: Chan Marshall
-------------------------------------------------------------------------------
                             Water & Air by Cat Power
-------------------------------------------------------------------------------

From 1996's 'What Would The Community Think'. Figured this one out by accident. I think
that for the most part it's correct, but she strings together the riffs throughout the
song and the patterns are hard to pin down, so listen to the song to get a good idea on 
it. I've provided a guide on the structure with timing, but it may not be one hundred
percent perfect.

Tabbed by: Scott H.

Tuning: Standard


Riff A:

e|---2---3---2------------|
B|-3---3---3---3--2-------|
G|------------------------|
D|------------------------|
A|------------------------|
E|------------------------|


Riff B:

e|-2---3---2--------------|
B|---3---3---3--2---------|
G|------------------------|
D|------------------------|
A|------------------------|
E|------------------------|


Riff C:

e|--2----3---2------------|
B|---------3---3--2-------|
G|------------------------|
D|------------------------|
A|------------------------|
E|------------------------|


Song structure:
(0:00 - 0:15) Riff A
(0:15 - 0:18) Riff B
(0:18 - 0:30) Riff A
(0:30 - 0:35) Riff C
(0:35 - 0:38) Riff B
(0:38 - 0:44) Riff A
(0:44 - 0:50) Riff B
(0:50 - 0:55) Riff A
(0:55 - 0:59) Riff B
(0:59 - 1:03) Riff C


Lyrics:

    I was dragged out
    By the shore man
    A very poor man
    A very nice man
    A family man

    My lover drifted down the river
    Below the dark water
    The devil all around

    Yesterday on the street
    Someone called out your name
    Someone thought that you were me

    Last night there was a party
    I could not go
    I walked around it
    I thought about it
    All night long

    Today there is a newspaper
    About you and me
    And the day we were married
    The same day

    The same day they fell in love
    The same day they died in love
    I did not want you to die alone

    Rusty river, run down
    Run, run as fast as you can, oh, run
    Rusty river, run ragged
    And drag my lover south back to me
    I'll meet him there
    Water and air

    Oh, to be at the bottom of a river
    Below the dark water
    The devil all around
    The devil all around
Добавлено: 11.05.2012
Другие материалы по этой песне:
  • Аккорды и текст

Страница создана 28.02.2012
http://primanota.ru/cat-power/water-and-air-chords.htm
Привет, Гость.
Предлагаем пройти революционный курс по гитаре.
Подарок от PrimaNota.Ru, забирай!