PrimaNota.ru - самый крупный в мире бесплатный архив песенных текстов, аккордов, табулатур и нот


Cat Power - Top Expert - текст песни, таба, видео

Регистрация Запомнить меня
Войти через:  Facebook Google Twitter Vk Yandex Mail.ru

Cat Power - Top Expert - текст песни, таба, видео

Печатать
Просмотров: 269
Уроки эстрадного вокала в Санкт-Петербурге
Авторы музыки: Chan Marshall
Авторы текста: Chan Marshall
TOP EXPERT

Pretty simple but powerful song.

The Chords are Am, C, G and Fmaj7

These are the tabs from the beginning. The rest of the song is played with slight 
alterations of this.

T|1-2-3-4-5-6-7-8-||1-2-3-4-5-6-7-8-||1-2-3-4-5-6-7-8-||1-2-3-4-5-6-7-8-|
T|1---2---3---4---||1---2---3---4---||1---2---3---4---||1---2---3---4---|

e|----------0-----||------0---------||----------------||------0---------|
B|------1---------||----------4-----||----------0-----||---------1------|
G|2---------------||5---5-------5---||4-----4-----4-3-||2---------2-2-0-|
D|2---2-------2-0-||2---2-------2-2-||5-------5-------||3---3---3---3-0-|
A|------------0-0-||3---------------||5---5---5-------||3---3---3---3---|
E|----------------||----------------||----------------||----------------|

If you notice any mistake, please let me know.
Добавлено: 10.03.2012
Другие материалы по этой песне:
  • Аккорды и текст

Страница создана 10.03.2012
http://primanota.ru/cat-power/top-expert-chords.htm
Привет, Гость.
Предлагаем пройти революционный курс по гитаре.
Подарок от PrimaNota.Ru, забирай!