PrimaNota.ru - самый крупный в мире бесплатный архив песенных текстов, аккордов, табулатур и нот


Cat Power - Peking Saint - текст песни, таба, видео

Регистрация Запомнить меня
Войти через:  Facebook Google Twitter Vk Yandex Mail.ru

Cat Power - Peking Saint - текст песни, таба, видео

Печатать
Просмотров: 120


Artist: Cat Power                                |
Song:   Peking Saint                             |
Album:  Moon Pix                                 |
                                                 |
Tabbed by Julen Arellano (eighthcloud@gmail.com) |
--------------------------------------------------

capo 2nd fret

In Peking there   is a son who (repeats for every verse)
e-----------------|-----------------|
B---3-------------|---3-------------|
G------5---2--5---|------5---2--0---|
D-----------------|-----------------|
A-----------------|-----------------|
E-----------------|-----------------|

solo, after each stanza
e-----------------------|-----------------------|
B---3---3---------------|---3b5r3---------------|
G---------5---0-2---5---|---------5---0-2---0---|
D-----------------------|-----------------------|
A-----------------------|-----------------------|
E-----------------------|-----------------------|

repeat throughout the rest of the song

Добавлено: 19.08.2013
Другие материалы по этой песне:
  • Аккорды и текст

Страница создана 24.04.2012
http://primanota.ru/cat-power/peking-saint-chords.htm
Привет, Гость.
Предлагаем пройти революционный курс по гитаре.
Подарок от PrimaNota.Ru, забирай!