PrimaNota.ru - самый крупный в мире бесплатный архив песенных текстов, аккордов, табулатур и нот


Casualties - We Dont Need You - текст песни, таба, бас-таба, видео

Регистрация Запомнить меня
Войти через:  Facebook Google Twitter Vk Yandex Mail.ru

Casualties - We Dont Need You - текст песни, таба, бас-таба, видео

Печатать
Просмотров: 171
I'm pretty sure this is 100% accurate


INTRO


(upwards pick slide)


E--------------------------------------|
B--------------------------------------|
G------7------4------------------------|
D-9~---7-7~---4-4~----7-11-11-11-9-----|
A-9~---5-7~---2-4~-7-9------------12-9~|
E-7~-----5~-----2~---------------------|

E--------------------------9~--9~--9-7----|
B-------------------------------------10--|
G--------77--------4--------------------7~|
D-999999-55-777777-4-444444---------------|
A-999999-55-777777-2-444444---------------|
E-777777----555555---222222---------------|

E---XXXX------XXXX-----XXXXXXXXXXXXXX--|
B---XXXX------XXXX-----XXXXXXXXXXXXXX--|
G---XXXX-77---XXXX-4---XXXXXXXXXXXXXX--|
D-999999-77-777777-4-4444444444444444--|     X3
A-999999-55-777777-2-4444444444444444--|
E-777777----555555---2222222222222222--|

E------------------------------------|
B------------------------------------|
G-----------9-10-9------------10-9-7-|
D-9---------9-10-9-9----------10-9-7-|
A-9---------7--8-7-9-----------8-7-5-|
E-7----------------7-----------------|

VERSE  (faster)

E---------------------------------------------|
B---------------------------------------------|
G------7777------9-10-9------7777------10-9-7-|
D-9999-7777-7777-9-10-9-9999-7777-7777-10-9-7-|    X4
A-9999-5555-7777-7--8-7-9999-5555-7777--8-7-5-|
E-7777------5555--------7777------5555--------|

CHORUS

E------------------------------------------------------|
B------------------------------------------------------|
G-1010101010101010-1212121212121212--------------------|
D-1010101010101010-1212121212121212-12121212-1010-1212-|   X2
A--8-8-8-8-8-8-8-8-1010101010101010-12121212-1010-1212-|
E-----------------------------------10101010--8-8-1010-|

BRIDGE

E---------------------------------------------------------------------|
B---------------------------------------------------------------------|
G------------------7777777777777777-9999999999999999-1010101010101010-|
D-9999999999999999-7777777777777777-9999999999999999-1010101010101010-|
A-9999999999999999-5555555555555555-7777777777777777--8-8-8-8-8-8-8-8-|
E-7777777777777777----------------------------------------------------|

E------------------|
B------------------|
G-1212121212121212-|
D-1212121212121212-|    X2
A-1010101010101010-|
E------------------|

(after 2nd verse repeat end of intro)

and that's it. great song and pretty easy too. well, enjoy
Добавлено: 02.04.2012
Другие материалы по этой песне:
  • Аккорды и текст

Страница создана 02.04.2012
http://primanota.ru/casualties/we-dont-need-you-chords.htm
Привет, Гость.
Предлагаем пройти революционный курс по гитаре.
Подарок от PrimaNota.Ru, забирай!