PrimaNota.ru - самый крупный в мире бесплатный архив песенных текстов, аккордов, табулатур и нот


Casualties - Sound From The Streets - бас-таба, видео

Регистрация Запомнить меня
Войти через:  Facebook Google Twitter Vk Yandex Mail.ru

Casualties - Sound From The Streets - бас-таба, видео

Печатать
Просмотров: 124
Sound From The Streets by Casualties
Album:On the Front Line
by: Angel bassist of  Dead Excuses


I made this tab because I Know there's
some dudes that can't even get this right so
enjoy it

Intro:x8
G:----------------------------------------------------------------|
D:---------------------5-5-5-7-5-7--------------------------------|
A:---7-7-7-0--7-7-7-7---------------------------------------------|
E:----------------------------------------------------------------|

Verse:x4
G:----------------------------------------------------------------|
D:-------------------------------------5-5-5----------------------|
A:--5-5-5-5--7-7-7----------------7-7-----------------------------|
E:----------------5-5-5-5--7-7-7----------------------------------|

Verse 2:x2
G:----------------------------------------------------------------|
D:-----------------3-5-7------------------------------------------|
A:--3-3--2-2-0---5---------3-3--2-2-0---5-3-----------------------|
E:------------------------------------------5-3-------------------|

Intro:x4
G:----------------------------------------------------------------|
D:---------------------5-5-5-7-5-7--------------------------------|
A:---7-7-7-0--7-7-7-7---------------------------------------------|
E:----------------------------------------------------------------|

Verse:x4
G:----------------------------------------------------------------|
D:-------------------------------------5-5-5----------------------|
A:--5-5-5-5--7-7-7----------------7-7-----------------------------|
E:----------------5-5-5-5--7-7-7----------------------------------|

Verse 2:x2
G:----------------------------------------------------------------|
D:-----------------3-5-7------------------------------------------|
A:--3-3--2-2-0---5---------3-3--2-2-0---5-3-----------------------|
E:------------------------------------------5-3-------------------|

Intro:x4
G:----------------------------------------------------------------|
D:---------------------5-5-5-7-5-7--------------------------------|
A:---7-7-7-0--7-7-7-7---------------------------------------------|
E:----------------------------------------------------------------|

Bridge:x2  on second time finish D:--7—5---------------------------|
G:-----------------------------------------------------------------|
D:---------5(x8)---7(x8)-----7-7-7--5------------------------------|
A:-7(x8)-------------------------------7-7-7--5--------------------|
E:-----------------------------------------------------------------|

Verse:x4
G:----------------------------------------------------------------|
D:-------------------------------------5-5-5----------------------|
A:--5-5-5-5--7-7-7----------------7-7-----------------------------|
E:----------------5-5-5-5--7-7-7----------------------------------|

Verse 2:x2
G:-----------------------------------------------------------------|
D:-----------------3-5-7-------------------------------------------|
A:--3-3--2-2-0---5---------3-3--2-2-0---5-3------------------------|
E:------------------------------------------5-3--------------------|

Outro:
G:-----------------------------------------------------------------|
D:--7-5------------------------------------------------------------|
A:-------7-5--7-7-7-7----------------------------------------------|
E:-----------------------------------------------------------------|

I Don't Know if it's perfect but it sounds great or maybe perfect
just listen to the song and you'll get it right

(if you wanna talk about any other tab here's my MSN Darkaangel@hotmail.com.ms)
Добавлено: 26.05.2012
Другие материалы по этой песне:
  • Аккорды и текст

Страница создана 26.05.2012
http://primanota.ru/casualties/sound-from-the-streets-chords.htm
Привет, Гость.
Предлагаем пройти революционный курс по гитаре.
Подарок от PrimaNota.Ru, забирай!