PrimaNota.ru - самый крупный в мире бесплатный архив песенных текстов, аккордов, табулатур и нот


Casualties - Rock And Roll Kids - текст песни, таба, видео

Регистрация Запомнить меня
Войти через:  Facebook Google Twitter Vk Yandex Mail.ru

Casualties - Rock And Roll Kids - текст песни, таба, видео

Печатать
Просмотров: 121
Уроки эстрадного вокала в Санкт-Петербурге
By ear... real shitty quality, though

Intro
e|----------------------------|
B|----------------------------|
G|----------------------------|
D|---6---4---3----------------| x4
A|-4---3---1-----6-6-6-6------|
E|-------------4--------------|

Verse
e|-------------------------------------------------|
B|-------------------------------------------------|
G|-------------------------------------------------|
D|-6-6-6-6-6-6-4-4-4-4-4-4-3-3-3-3-3-3-------------|
A|-4-4-4-4-4-4-3-3-3-3-3-3-1-1-1-1-1-1-6-6-6-6-6-6-|
E|-------------------------------------4-4-4-4-4-4-|

Chorus
e|-------------------------------------------------|
B|-------------------------------------------------|
G|-------------------------------------------------|
D|-------------8-8-8-8-8-8-------------------------|
A|-5-5-5-5-5-5-6-6-6-6-6-6-8-8-8-8-8-8-3-3-3-3-3-3-|
E|-3-3-3-3-3-3-------------6-6-6-6-6-6-1-1-1-1-1-1-|

Last chord
A|-3-|
E|-1-|
Добавлено: 10.12.2013
Другие материалы по этой песне:
  • Аккорды и текст

Страница создана 08.06.2012
http://primanota.ru/casualties/rock-and-roll-kids-chords.htm
Привет, Гость.
Предлагаем пройти революционный курс по гитаре.
Подарок от PrimaNota.Ru, забирай!