PrimaNota.ru - самый крупный в мире бесплатный архив песенных текстов, аккордов, табулатур и нот


Casualties - Riot - аккорды и текст, таба, видео

Регистрация Запомнить меня
Войти через:  Facebook Google Twitter Vk Yandex Mail.ru

Casualties - Riot - аккорды и текст, таба, видео

Печатать
Просмотров: 221
Riot
Casualties
		   Author/Artist: The Casualties
Title: Riot
Album: For The Punx
Transcribed by: Charged
Email: Chargedpunk@Yahoo.Com


INTRO:
------------------------------------------------------------------------------
------------------------------------------------------------------------------
-4444------7777------7-6-4444------7777------7-6-4444------7777-------7-6-444-
-4444-4444-7777-7777-7-6-4444-4444-7777-7777-7-6-4444-4444-7777-7777--7-6-444-
-2222-4444-5555-7777-5-4-2222-4444-5555-7777-5-4-2222-4444-5555-7777--5-4-222-
------2222------5555----------2222------5555----------2222------5555----------
 xx x xx x xx x xx x     xx x xx x xx x xx x     xx x
xx x xx x xx x      xx  

------------------------------------------------------------------------------
------------------------------------------------------------------------------
-4------7777------7-6-4--7-6-4--7-6-4--7-6-4---4-2-4--------------------------
-4-4444-7777-7777-7-6-4--7-6-4--7-6-4--7-6-4----------------------------------
-2-4444-5555-7777-5-4-2--5-4-2--5-4-2--5-4-2----------------------------------
---2222------5555-------------------------------------------------------------
 x xx x xx x xx x                                p h  
                       


VERSE:
------------------------------------------------------------------------------
------------------------------------------------------------------------------
-4444------7777---7-6---------------------------------------------------------
-4444-4444-7777-7-7-6---------------------------------------------------------
-2222-4444-5555-7-5-4---------------------------------------------------------
------2222------5-------------------------------------------------------------
                                                      
                       
CHORUS:
------------------------------------------------------------------------------
------------------------------------------------------------------------------
-77777777-99999999------------------------------------------------------------
-77777777-99999999-77777777-5555-7--------------------------------------------
-55555555-77777777-77777777-5555-7--------------------------------------------
-------------------55555555-3333-5--------------------------------------------

END:
------------------------------------------------------------------------------
------------------------------------------------------------------------------
-7-6-4--7-6-4--7-6-4--7-6-4---------------------------------------------------
-7-6-4--7-6-4--7-6-4--7-6-4---------------------------------------------------
-5-4-2--5-4-2--5-4-2--5-4-2---------------------------------------------------
------------------------------------------------------------------------------

SONG:

INTRO x1
VERSE x4
CHORUS x2
VERSE x4
CHORUS x2
CHORUS x2
VERSE x1
END x1

not sure if thats how it goes but its close. figure
out timing your damn selves.
     
Добавлено: 01.10.2013
Другие материалы по этой песне:

Страница создана 29.02.2012
http://primanota.ru/casualties/riot-chords.htm
Привет, Гость.
Предлагаем пройти революционный курс по гитаре.
Подарок от PrimaNota.Ru, забирай!