PrimaNota.ru - самый крупный в мире бесплатный архив песенных текстов, аккордов, табулатур и нот


Casualties - Get Off My Back - аккорды и текст, таба, бас-таба, драм-таба, видео

Регистрация Запомнить меня
Войти через:  Facebook Google Twitter Vk Yandex Mail.ru

Casualties - Get Off My Back - аккорды и текст, таба, бас-таба, драм-таба, видео

Печатать
Просмотров: 181
Get Off My Back
Casualties
Intro
repeat 4 times
 palm muted                   notpm                               
E---------------------------------- 
B----------------------------------
G----------------------------------
D----------------------------------
A777777777777777777777777777778-8-7
E555555555555555555555555555556-6-5

play 2 times
E-------------------------------
B-------------------------------
G-------------------------------
D-------10101010----------------
A7-7--77-8-8--88-101010105-5--55
E5---55---------8-8--88-3-3--33


verse

E-------------------------------
B-------------------------------
G-------------------------------
D-------------------------------
A7-7-7-7-7-7-7-7-7-7-7-7-7-7-8-8
E5--5-5-5-5-5-5-5-5-5-5-5-5-6-6

chorus

E-----------------------
B-----------------------
G-----------------------
D----101010-------------
A7-77-8-88-1010105-5-8-8
E5-55-------8-88-3-3-6-6

breakdown

E--------------------------------------------------------------------
B--------------------------------------------------------------------
G--------------------------------------------------------------------
D-------5-22222222-------5-22222222-------5-22222222-------5-77777777
A5-5-4-3-0000000055-5-4-3-0000000055-5-4-3-0000000055-5-4-3-55555555
E33-3-2-----------33-3-2-----------33-3-2-----------33-3-2-----------
Добавлено: 07.07.2012
Другие материалы по этой песне:
  • Аккорды и текст

Страница создана 29.04.2012
http://primanota.ru/casualties/get-off-my-back-chords.htm
Привет, Гость.
Предлагаем пройти революционный курс по гитаре.
Подарок от PrimaNota.Ru, забирай!