PrimaNota.ru - самый крупный в мире бесплатный архив песенных текстов, аккордов, табулатур и нот


Casting Pearls - Alright - текст песни, таба, видео

Регистрация Запомнить меня
Войти через:  Facebook Google Twitter Vk Yandex Mail.ru

Casting Pearls - Alright - текст песни, таба, видео

Печатать
Просмотров: 125
Уроки эстрадного вокала в Санкт-Петербурге
   And here we are! The very first full-song tab of any Casting Pearls
song! Well, I'm pretty sure the number of times you strum are probably
wrong on some parts and you'll have to figure out the strum pattern
for the verses and the chorus by yourself, but other than that, it
should be all good!

Tabbed by: Sam Churney

Casting Pearls

Alright

Standard tuning: EADGBe

Intro:

e ------------------------------------------|
B ------------------------------------------|
G ------------------------------------------|      x2
D ---10---10--10-\-3-3-3-/-7---7--7-/-5-5---|
A ---10---10--10-\-3-3-3-/-7---7--7-/-5-5---|
E ---8----8---8--\-1-1-1-/-5---5--5-/-3-3---|


Verse:

Bass Plays:

e --------------------------------------|
B --------------------------------------|
G --------------------------------------|      x4
D --------------------------------------|
A ---3---3--3---------------------------|
E -------------1-1-1--5---5--5--3-3-3---|

Pre Chorus:


e -------------------------------------------|
B -------------------------------------------|
G -------------------------------------------|      x2
D ---10---10--10-\-3-3-3-/-7---7--7-/-5-5~---|
A ---10---10--10-\-3-3-3-/-7---7--7-/-5-5~---|
E ---8----8---8--\-1-1-1-/-5---5--5-/-3-3~---|

                                       (You can let ring here or
                                       just play the last power chord
                                       about eight times if you like
                                       build ups)
Chorus!

e ------------------------------------------------------------|
B ------------------------------------------------------------|
G ------------------------------------------------------------|
D ---10-10-10-10-10-----5-5-5-5-5------7-7-7-7-7-7------3-3-3-|
A ---10-10-10-10-10-----5-5-5-5-5------7-7-7-7-7-7------3-3-3-|
E ---8--8--8--8--8------3-3-3-3-3------5-5-5-5-5-5------1-1-1-|

e -------------------------------------------------------------|
B -------------------------------------------------------------|
G -------------------------------------------------------------|
D ---10-10-10-10-10-----5-5-5-5-5------7-7-7-7-7-7-------5-5-5-|
A ---10-10-10-10-10-----5-5-5-5-5------7-7-7-7-7-7-------5-5-5-|
E ---8--8--8--8--8------3-3-3-3-3------5-5-5-5-5-5-------3-3-3-|


Post Chorus:


e ------------------------------------------|
B ------------------------------------------|
G ------------------------------------------|      x2
D ---10---10--10-\-3-3-3-/-7---7--7-/-5-5---|
A ---10---10--10-\-3-3-3-/-7---7--7-/-5-5---|
E ---8----8---8--\-1-1-1-/-5---5--5-/-3-3---|


Verse 2:

Bass plays:

e --------------------------------------|
B --------------------------------------|
G --------------------------------------|      x4
D --------------------------------------|
A ---3---3--3---------------------------|
E -------------1-1-1--5---5--5--3-3-3---|

Pre Chorus 2:


e -------------------------------------------|
B -------------------------------------------|
G -------------------------------------------|      x2
D ---10---10--10-\-3-3-3-/-7---7--7-/-5-5~---|
A ---10---10--10-\-3-3-3-/-7---7--7-/-5-5~---|
E ---8----8---8--\-1-1-1-/-5---5--5-/-3-3~---|

                                       (You can let ring here or
                                       just play the last power chord
                                       about eight times if you like
                                       build ups)
Chorus 2!

e ------------------------------------------------------------|
B ------------------------------------------------------------|
G ------------------------------------------------------------|
D ---10-10-10-10-10-----5-5-5-5-5------7-7-7-7-7-7------3-3-3-|
A ---10-10-10-10-10-----5-5-5-5-5------7-7-7-7-7-7------3-3-3-|
E ---8--8--8--8--8------3-3-3-3-3------5-5-5-5-5-5------1-1-1-|

e -------------------------------------------------------------|
B -------------------------------------------------------------|
G -------------------------------------------------------------|
D ---10-10-10-10-10-----5-5-5-5-5------7-7-7-7-7-7-------5-5-5-|
A ---10-10-10-10-10-----5-5-5-5-5------7-7-7-7-7-7-------5-5-5-|
E ---8--8--8--8--8------3-3-3-3-3------5-5-5-5-5-5-------3-3-3-|

Bridge:

e -------------------|
B -------------------|
G -------------------|    x3
D ---7-7--5-5--3-3---|
A ---7-7--5-5--3-3---|
E ---5-5--3-3--1-1---|

e ---------------------------------------------------|
B ---------------------------------------------------|
G ---------------------------------------------------|
D ---5-5-5-5-5-5---------------------3-3-3-3-3-3-3---|
A ---5-5-5-5-5-5---------------------3-3-3-3-3-3-3---|
E ---3-3-3-3-3-3---------------------1-1-1-1-1-1-1---|

   Yeah you've got somethin' to live for...

e ---------------------|
B ---------------------|
G ---------------------|
D -----10--------------|
A -----10--------------|
E -----8---------------|

   This is the love that put the stars in the heavens, this is the love
e -------------------------------------------|
B -------------------------------------------|
G -------------------------------------------|
D -----------------------5-5-5-5-5-5-5-5-----|
A -----------------------5-5-5-5-5-5-5-5-----|
E -----------------------3-3-3-3-3-3-3-3-----|

that makes life worth livin'.................yeah...


e -------------------|
B -------------------|
G -------------------|
D -----10------------|
A -----10------------|
E -----8-------------|


Chorus 3!:

e ------------------------------------------------------------|
B ------------------------------------------------------------|
G ------------------------------------------------------------|
D ---10-10-10-10-10-----5-5-5-5-5------7-7-7-7-7-7------3-3-3-|
A ---10-10-10-10-10-----5-5-5-5-5------7-7-7-7-7-7------3-3-3-|
E ---8--8--8--8--8------3-3-3-3-3------5-5-5-5-5-5------1-1-1-|

e ------------------------------------------------------------------|
B ------------------------------------------------------------------|
G ------------------------------------------------------------------|
D ---10-10-10-10-10-----5-5-5-5-5-----7-7-7-7-7-7-----5-5-5-5-5-5-5-|
A ---10-10-10-10-10-----5-5-5-5-5-----7-7-7-7-7-7-----5-5-5-5-5-5-5-|
E ---8--8--8--8--8------3-3-3-3-3-----5-5-5-5-5-5-----3-3-3-3-3-3-3-|


Outro:


e ------------------------------------------|
B ------------------------------------------|
G ------------------------------------------|      x2
D ---10---10--10-\-3-3-3-/-7---7--7-/-5-5---|
A ---10---10--10-\-3-3-3-/-7---7--7-/-5-5---|
E ---8----8---8--\-1-1-1-/-5---5--5-/-3-3---|


Well, that's it! Hope it works xD

Anyways, if there are any problems email me at
churnesa@student.ednet.ns.ca

-Sam Churney
Добавлено: 27.07.2012
Другие материалы по этой песне:
  • Аккорды и текст

Страница создана 07.03.2012
http://primanota.ru/casting-pearls/alright-chords.htm
Привет, Гость.
Предлагаем пройти революционный курс по гитаре.
Подарок от PrimaNota.Ru, забирай!