PrimaNota.ru - самый крупный в мире бесплатный архив песенных текстов, аккордов, табулатур и нот


Cassino - The Gin War - текст песни, таба, видео

Регистрация Запомнить меня
Войти через:  Facebook Google Twitter Vk Yandex Mail.ru

Cassino - The Gin War - текст песни, таба, видео

Печатать
Просмотров: 145
Originally from: http://www.cassinofan.com/page.php?11




Okay so this is the basics, obviously there is much more going on
but I think this takes care of most of it.  The chorus is just a
guess, I can't tell exactly whats going on, sounds like multiple
guitars but the chord structure is about right... right?

Intro/Verse I (prt. 1) (x5)

e|-----------------------------------------------------------|
B|---------0~------0-------0~-------0------------------------|
G|-------4-------4-------4--------4--------------------------|
D|-----5-------7-------0--------5----------------------------|
A|---7-------5-------5--------6------------------------------|
E|-0---------------------------------------------------------|

Verse I(prt. 2) (x2)

e|----------------------------------------------------------------|
B|----0-0-----0-0-----0-0-----0-0---------------------------------|
G|----4-4-----4-4-----4-4-----4-4-----4-4-----4-4-----4-4-----4-4-|
D|----5-5-----5-5-----5-5-----7-7-0-0-0-0-0-0-0-0-0-0-0-0-0-0-5-5-|
A|x-x-7-7-x-x-7-7-x-x-7-7-x-x-5-5-x-x-5-5-x-x-5-5-x-x-5-5-x-x-6-6-|
E|0-0-0-0-0-0-0-0-0-0-0-0-0-0-------------------------------------|



Chorus (x2)

e|-3-----3-----------3--3-3-3-3-3-3---3----------3-----------3--3-3-333-3-3-|
B|-3-----3-----------3--3-3-3-3-3-3---3----------3-----------3--3-3-333-3-3-|
G|-x-----x-----------x--x-x-x-x-x-x---x----------0-----------0--0-0-000-0-0-|
D|-x-----x-----------0--0-0-0-0-0-0---x----------0-----------0--0-0-000-0-0-|
A|-2-----3----------------------------2----------2-----------3--3-3-333-3-3-|
E|-0----------------------------------0----------3--------------------------|
    Our  bodies got so much clearer,  With dirty blood and 30 last calls
  So... it up    and spin forever...  I'd throw it up just to watch it fall


Chorus out (x4)
e|------------------------------------------|
B|-------3-----------3--------3-------------|
G|----0-----0-----0--------0-----0----------|
D|----------------------0-------------0-----|
A|-------------2----------------------------|
E|-0--------------------------------3---2---|


Verse II (X6)
[Play (last part) 1st, 3rd, and 5th times only]

e|-----------------------------------------|
B|---------0~------0-------0~-------(0)----|
G|-------4-------4-------4--------(4)------|
D|-----5-------7-------0--------(5)--------|
A|---7-------5-------5--------(6)----------|
E|-0---------------------------------------|


Verse II(prt. 2) (x2)

e|-----------------------------------------------------------------|
B|-----0-0-----0-0-----0-0-----0-0---------------------------------|
G|-----4-4-----4-4-----4-4-----4-4-----4-4-----4-4-----4-4-----4-4-|
D|-----5-5-----5-5-----5-5-----7-7-0-0-0-0-0-0-0-0-0-0-0-0-0-0-5-5-|
A|-x-x-7-7-x-x-7-7-x-x-7-7-x-x-5-5-x-x-5-5-x-x-5-5-x-x-5-5-x-x-6-6-|
E|-0-0-0-0-0-0-0-0-0-0-0-0-0-0-------------------------------------|



Chorus (x2)

e|-3-----3-----------3--3-3-3-3-3-3---3----------3-----------3--3-3-333-3-3-|
B|-3-----3-----------3--3-3-3-3-3-3---3----------3-----------3--3-3-333-3-3-|
G|-x-----x-----------x--x-x-x-x-x-x---x----------0-----------0--0-0-000-0-0-|
D|-x-----x-----------0--0-0-0-0-0-0---x----------0-----------0--0-0-000-0-0-|
A|-2-----3----------------------------2----------2-----------3--3-3-333-3-3-|
E|-0----------------------------------0----------3--------------------------|
    Our  bodies got so much clearer,  With dirty blood and 30 last calls
  So... it up    and spin forever...  I'd throw it up just to watch it fall


Chorus out (x4)
e|------------------------------------------|
B|-------3-----------3--------3-------------|
G|----0-----0-----0--------0-----0----------|
D|----------------------0-------------0-----|
A|-------------2----------------------------|
E|-0--------------------------------3---2---|


Bridge


e|3~------2~--------------------------------------------------------------|
B|---------------0~--------2~------------------------------7-----------0~-|
G|-----0-------0---------0---------0-----0---------------4-----------4----|
D|---2-------2---------0---------0-----0---------------5-----------5------|
A|-------------------2-------------------------------6-----------7--------|
E|-----------------------------3-----2------------------------------------|
                                        Share your spoken  wealth,  Share 
                                                         your bodies health


e|------------------------------------------------------------------------|
B|--------2~------------------------------0~--------------2~--------------|
G|------0--------0-----0--------0-------4---------------0--------0------0-|
D|----0--------0-----0--------5-------5---------------0--------0------0---|
A|--2-----------------------6-------7---------------2---------------------|
E|-----------3-----2-----------------------------------------3-------2----|
 I need it...   ...self. I know...   ...at the... I guess... fine by me



Solo (back with chorus chords)

e|-------------------12p10----12\10--------------------------------------------|
B|------------------------12-------12\10------------------------- ---13p12---12|
G|-------------9-12---------------------12--------12-14--12----12h14------14---|
D|---------9h12----------------------------12h14------------14-----------------|
A|----10h12--------------------------------------------------------------------|
E|/12--------------------------------------------------------------------------|


e|---------------------------------------------------------------------|
B|---------------------12----------------------------------------------|
G|------12------12--/12--12--14\12----12\7---7\4---5-----5/7-5-4-------|
D|-12h14---12h14-------------------12------9----7--7-p-0-7/9-7-5-------|
A|---------------------------------------------------------------------|
E|---------------------------------------------------------------------|




 (x4)
e|------------------------------------------|
B|-------3-----------3--------3-------------|
G|----0-----0-----0--------0-----0----------|
D|----------------------0-------------0-----|
A|-------------2----------------------------|
E|-0--------------------------------3---2---|
Through the window you tasted much sweeter.



Strum to end...

e|--3---------------------------------------|
B|--3---------------------------------------|
G|--0---------------------------------------|
D|--0---------------------------------------|
A|--2---------------------------------------|
E|--3---------------------------------------|


e|------3-------3-------3-------------------|
B|--------3-------3-------3-----------------|
G|----0-------0-------0---------------------|
D|--4-------4-------4-----------------------|
A|------------------------------------------|
E|------------------------------------------|



| /  slide up
| \  slide down
| h  hammer-on
| p  pull-off
| ~  hold note
| +  harmonic
| x  Mute note

Thats pretty much all there is to it.  Great tune!
Добавлено: 10.07.2012
Другие материалы по этой песне:
  • Аккорды и текст

Страница создана 09.04.2012
http://primanota.ru/cassino/the-gin-war-chords.htm
Привет, Гость.
Предлагаем пройти революционный курс по гитаре.
Подарок от PrimaNota.Ru, забирай!