PrimaNota.ru - самый крупный в мире бесплатный архив песенных текстов, аккордов, табулатур и нот


Cassino - American Low - текст песни, таба, видео

Регистрация Запомнить меня
Войти через:  Facebook Google Twitter Vk Yandex Mail.ru

Cassino - American Low - текст песни, таба, видео

Печатать
Просмотров: 123
-------------------------------------------------------------------------------
                           American Low - Cassino
-------------------------------------------------------------------------------
Tabbed by:cory e
Email:coryemerson@insightbb.com

Most of it's dead on, Nick Torres actually showed me a lot of it. Tyler's parts are under Nick's parts.

Standard Capo 2nd fret (all notes and chords relative to capo)

Intro
   
e|--------------------------------------------------------------------------|
B|--------------------------------------------------------------------------|
G|--0~----------------2~----------0~----------------------------------------|
D|--2~----------------1~----------2~----------------------------------------|
A|--0~----------------2~----------3~----------------------------------------|
E|--------------------------------------------------------------------------|
 |                                                                          | 
e|--------------------------------------------------------------------------|
B|--0h1-----1----------0---0-------0---1---3-----0---------5-----3----------|
G|--0---0-----0---0-----2---2-------0----0---0-----0----0-----0-------------|
D|--2-----2--------------1-----1------2---------------4---------------------|
A|--0-----------0-----2------2----3--------3----/5---------5-----5----------|
E|--------------------------------------------------------------------------|

Verse(prt. 1)

e|--------------------------------------------------------------------------|
B|---0------------------0---------------------------------------------------|
G|---0------------------0---------------------------------------------------|
D|---2-(strum)----------0-(strum)-------------------------------------------|
A|---3------------------x---------------------------------------------------|
E|----------------------3---------------------------------------------------|
 |                                                                          |
e|--------------------------------------------------------------------------|
B|---0-------1---3------0-------5---3---------------------------------------|
G|-----0---0---0---0------0---0---0---0-------------------------------------|
D|-------2------------------4-----------------------------------------------|
A|---3-------3---3-----/5-------5---5---------------------------------------|
E|--------------------------------------------------------------------------|

  Verse(prt. 2)

e|--------------------------------------------------------------------------|
B|---5---------3---------1--------------------------------------------------|
G|---0---------0---------0--------------------------------------------------|
D|---x---------x---------2--------------------------------------------------|
A|---3---------2---------0--------------------------------------------------|
E|--------------------------------------------------------------------------|
 |                                                                          | 
e|--------------------------------------------------------------------------|
B|---5-----5---3-----3---1-----1---1-----1----------------------------------|
G|-----0-----0---0-----0---0-----0---0-----0--------------------------------|
D|---------------------------2---------2------------------------------------|
A|---3---3-----2---2-----0---------0----------------------------------------|
E|--------------------------------------------------------------------------|

e|-------------------------------------------------------------------------0~|
B|---5-----------3------------1---------------------5----------3-----------0~|
G|---0-----------0------------0---------------------0----------0-----------0~|
D|---x-----------x------------2---------------------x----------x-----------2~|
A|---3-----------2------------0---------------------3----------2-----------2~|
E|-------------------------------------------------------------------------0~|
 |                                                                           
e|---------------------------------------------------------------------------|
B|----8------8---10------10---12-----12--12-----12----8-----8--10-----10---8~|
G|------0------0----0-------0----0------0---0-----0-----0----0----0-----0----|
D|---------------------------------------------------------------------------|
A|---10---10-----12---12------14---14----14---14-----10---10---12---12----10~|
E|---------------------------------------------------------------------------|

 Pre-Chorus

e|------------------------------------------------------------------------|
B|---1~-------------------------------------------------------------------|
G|---0~-------------------------------------------------------------------|
D|---2~-------------------------------------------------------------------|
A|---0~-------------------------------------------------------------------|
E|------------------------------------------------------------------------|
 |
e|---12p10----------------------------------------------------------------|
B|---------12p10----------------8-------3---------------------------------|
G|---------------12p9-------7h9-----4h5-----------------------------------|
D|------------------------------------------------------------------------|
A|------------------------------------------------------------------------|
E|------------------------------------------------------------------------|

 Chorus

e|------------------------------------------------------------------------|
B|--000-333--3h5-55--333--000-3p0-00--000-----00--------------------------|
G|--000-000--0---00--000--000-0---00--000-2p0-00--------------------------|
D|--xxx-xxx--x---x---x----000-0---00--000-0---00--------------------------|
A|--333-333--3---3---3----x---x---x---x---x---x---------------------------|
E|------------------------3---3---3---3---3---3---------------------------|
 |                                                                                                         
e|------------------------------------------------------------------------|
B|--0---3----3h5-----3-----0~------1/3---1p0------------------------------|
G|-----------0-------------0~------2/4---2p0---0--------------------------|
D|-------------------------0~----------------2----------------------------|
A|--3----------------------x----------------------------------------------|
E|-------------------------3~---------------------------------------------|

e|------------------------------------------------------------------------|
B|--1~----------------------0~------0~------------------------------------|
G|--0~----------------------2~------2~------------------------------------|
D|--2~----------------------0~-(or)-1~------------------------------------|
A|--0~----------------------2~------2~------------------------------------|
E|------------------------------------------------------------------------|
 |
e|--12p10-----------------------------------------------------------------|
B|--------12p10----------------8~-----------------------------------------|
G|--------------12p9-------7h9--------------------------------------------|
D|------------------------------------------------------------------------|
A|------------------------------------------------------------------------|
E|------------------------------------------------------------------------|

e|------------------------------------x2----------------------------------|
B|--0-----3---5---3----0---0---0---0------0-------0-------0-------0-------|
G|----0-0---0---0---0----0---0---0---0------0---0---0-2-----0---0-2-------|
D|--------------------------------------------2---------0-----0-----------|
A|--3---------3---3-----------------------0-------2-------3-------2-------|
E|---------------------3---3---3---3--------------------------------------|
 |
e|---------------------------------x2-------------------------------------|
B|--12/15-12--------------12--------------12~----10~------8~----8-7~------|
G|---------------------14----14-12----------------------------------------|
D|------------------------------------------------------------------------|
A|------------------------------------------------------------------------|
E|------------------------------------------------------------------------|

Outro- I have not figured out the outro yet, so this is what I play.

Am7-G/B-C-G



| /  slide up
| \  slide down
| h  hammer-on
| p  pull-off
| ~  hold note
| +  harmonic
| x  Mute note
===============================================================================
Добавлено: 28.06.2012
Другие материалы по этой песне:
  • Аккорды и текст

Страница создана 28.06.2012
http://primanota.ru/cassino/american-low-chords.htm
Привет, Гость.
Предлагаем пройти революционный курс по гитаре.
Подарок от PrimaNota.Ru, забирай!