PrimaNota.ru - самый крупный в мире бесплатный архив песенных текстов, аккордов, табулатур и нот


Cassie - Not With You - текст песни, таба, видео

Регистрация Запомнить меня
Войти через:  Facebook Google Twitter Vk Yandex Mail.ru

Cassie - Not With You - текст песни, таба, видео

Печатать
Просмотров: 187
Уроки эстрадного вокала в Санкт-Петербурге
-------------------------------------------------------------------------------
                             Not With You - Cassie
-------------------------------------------------------------------------------
Tabbed by: Patrick S
Email: patrk93@gmail.com

Tuning: Standard

As heard on : http://www.youtube.com/watch?v=sVAJCBDdXwo

INTRO(Played throughout the whole song)
e|------------------------------------------------------|
B|-----------9----------7----------5--------5--5h7p5----|
G|--------8----------6----------4--------4------------4-|
D|-----9----------8----------6--------------------------|
A|--7----------6----------4-----------4-----------------|
E|------------------------------------------------------|

e|----------------------------4h7p4--|
B|-----------9---------7--5~---------|
G|--------8---------6-----4~---------|
D|-----9---------8--------6~---------|
A|--7---------6-----------4~---------|
E|-----------------------------------|



CHORUS
e|---------------------------------------------------------|
B|--7h9--7h9-----7h9--7h9-----7h9--7h9--9--11--12--11--7---|
G|--8----8----8--8----8----8--8----8-----------------------|
D|------------9------------9-------------------------------|
A|---------------------------------------------------------|
E|---------------------------------------------------------|

e|---------------------------------------------------|
B|--7h9--7h9-----7h9--7h9----------------------------|
G|--8----8----8--8----8---------8~--6~--8~-6~--4-----|
D|------------9------------(9)--9~--7~--9~-7~-----6~-|
A|-------------------------(7)-----------------------|
E|---------------------------------------------------|


| /  slide up
| \  slide down
| h  hammer-on
| p  pull-off
| ~  vibrato
| +  harmonic
| x  Mute note
===============================================================================
Добавлено: 11.04.2012
Другие материалы по этой песне:
  • Аккорды и текст

Страница создана 29.02.2012
http://primanota.ru/cassie/not-with-you-chords.htm
Привет, Гость.
Предлагаем пройти революционный курс по гитаре.
Подарок от PrimaNota.Ru, забирай!