PrimaNota.ru - самый крупный в мире бесплатный архив песенных текстов, аккордов, табулатур и нот


Cassia Eller - Relicario - аккорды и текст, видео

Регистрация Запомнить меня
Войти через:  Facebook Google Twitter Vk Yandex Mail.ru

Cassia Eller - Relicario - аккорды и текст, видео

Печатать
Просмотров: 157
Relicario
Cassia Eller
http://cliquemusic.uol.com.br/artistas/ver/cassia-eller

http://pt.wikipedia.org/wiki/C%C%A1ssia_Eller


Intro.: D D7 D6 Eb5 D9

      (D9    D)
e uma india com um colar
A tarde linda que nao quer se por
Dançam as ilhas sobre o mar
Sua cartilha tem um "a" de que cor?
Em                      G
O que esta acontecendo?
                     D
O mundo esta ao contrario
e ninguem reparou
Em
O que esta acontecendo?
 G
Uu...
                           D
Eu estava em paz quando voce chegou
          (D9    D)
Sao dois cilios em pleno ar
E atras do filho vem o pai, o avo
Como um gatilho sem disparar
Voce invade mais um lugar
         Em
Onde nao vou
                         G
O que voce esta fazendo?
Milhões de vasos
       D
Sem nenhuma flor
Em
O que voce esta fazendo?
 G
Uu...
                     D
Um relicario imenso desse amor

SOLO: G D/F# C G

 tabs & dicas

E|--------------------------------------------------------|
B|--------------------------------------------------------|
G|-----------------------------------------------------0--|
D|-----------------------0------------0--2--0--2--4-------|
A|--0--0--0--2--0--2--------2--3--------------------------|
E|--------------------------------------------------------|

E|----------------------------------------0----0--2--3--|
B|-----------------------3--1--0--1--3------------------|
G|--2--2--2--4--2--4------------------------------------|
D|------------------------------------------------------|
A|------------------------------------------------------|
E|------------------------------------------------------|

         (D9    D)
Corre a lua porque longe vai
Sobe o dia tao vertical
O horizonte anuncia com o seu vitral
Que eu trocaria a eternidade
          Em
Por essa noite
Porque esta amanhecendo?
G                     D
Peço o contrario ver o sol se por
Em                      G
Porque esta amanhecendo?
                        D
se nao vou beijar seus labios
Quando voce se for
            D
Quem nesse mundo faz o que ha durar
Pura semente dura um futuro amor
Eu sou a chuva pra voce secar
pelo zunido das suas asas
            Em
Voce me falou
                         G
O que voce esta dizendo?
milhões de frases
       D
Sem nenhuma cor, ooo...
Em
O que voce esta dizendo?
 G
Uu...
Um relicario imenso
D
desse amor
A9                       C9
O que voce esta dizendo?
A9                       C9
O que voce esta fazendo?
                            D      D7 D6 Eb5
Por que que esta fazendo assim? E e...
                        D      D7 D6 Eb5 D
Por que esta fazendo assim? E e...
Добавлено: 05.07.2012
Вам также может быть интересно:
Другие материалы по этой песне:
  • Аккорды и текст

Страница создана 05.07.2012
http://primanota.ru/cassia-eller/relicario-chords.htm
Привет, Гость.
Предлагаем пройти революционный курс по гитаре.
Подарок от PrimaNota.Ru, забирай!