PrimaNota.ru - самый крупный в мире бесплатный архив песенных текстов, аккордов, табулатур и нот


Casino Madrid - Life Sentencer - таба, видео

Регистрация Запомнить меня
Войти через:  Facebook Google Twitter Vk Yandex Mail.ru

Casino Madrid - Life Sentencer - таба, видео

Печатать
Просмотров: 154
Drop A# tuning, listen to the song for the rhythm, there are some lead parts that i 
don't know but the parts i have should be right,
i learned this song for a contest and have it filmed if you want to see it:)
http://youtube/n-VeDXam6Dw

Intro: Guitar 1
C |-----------------|
G |-------10~-------|
D#|-7~-8~-----7-8---|  X4
A#|-----------------|
F |-----------------|
A#|-----------------|

Guitar 2
C |--------------------------------------------------|
G |--------------------------------------------------|
D#|------------------------------------------*3~-----|
A#|-------------------------------------0------------|
F |-0--0-0-0--0-0-0--0-0-0--0-0---1------------------|
A#|-1--1-1-1--1-1-1--1-1-1--1-1-0---3-2---3------4^--|
    .  . . .  . . .  . . .  . .

C |----------------------------------------------|
G |----------------------------------------------|
D#|----------------------------------------------|
A#|----------------------------------------------|
F |-0-0--0-0-0--0-0-0--0-0-0-0--0-0-0-0-0-0-0-0--|
A#|-1-1--1-1-1--1-1-1--1-1-1-1--1-1-1-1-1-1-1-1--|
    . .  . . .  . . .  . . . .  . . . . . . . .

Both guitars(same riff)
C |--------------------------------------------------|
G |--------------------------------------------------|
D#|------------------------------------------*3~-----|
A#|-------------------------------------0------------|
F |-0--0-0-0--0-0-0--0-0-0--0-0---1------------------|
A#|-1--1-1-1--1-1-1--1-1-1--1-1-0---3-2---3------4^--|
    .  . . .  . . .  . . .  . .

C |----------------------------------------------|
G |----------------------------------------------|
D#|----------------------------------------------|
A#|----------------------------------------------|
F |-0-0--0-0-0--0-0-0--0-0-0-0--0-0-0-0-0-0-0-0--|
A#|-1-1--1-1-1--1-1-1--1-1-1-1--1-1-1-1-1-1-1-1--|
    . .  . . .  . . .  . . . .  . . . . . . . .

Verse:
C |--------------------------------------------------------------------------|
G |--------------------------------------------------------------------------|
D#|--------------------------------------------------------------------------|
A#|--------------------------------------------------------------------------|
F |-5------5------5-8-4------4------4-7-5------5------5-8-4------4------4-7--|
A#|---0000---0000-------0000---0000-------8888---8888-------5555---5555------|

X2

C |--------------------------------------------------------------------------|
G |--------------------------------------------------------------------------|
D#|--------------------------------------------------------------------------|
A#|--------------------------------------------------------------------------|
F |-5------5------5-8-4------4------4-7-5------5------5-8--------------------|
A#|---0000---0000-------7777---7777-------5555---5555-----8-8-8-8-7-7-7-7----|

X2

C |--------|
G |--------|
D#|--------|
A#|--------|
F |-0~-----|
A#|-0~-----|

Chorus:
C |----------------------------|
G |----------------------------|
D#|----------------------------|
A#|----------------------------|
F |-8------5------0------------|
A#|-8-(X8)-5-(X8)-0-(X16)------|

C |----------------------------|
G |----------------------------|
D#|----------------------------|
A#|----------------------------|
F |-3------5-------------------|
A#|-3-(X8)-5-(X8)-0-(X16)------|

X2 but keep playing last note(listen to song)

Verse:
C |--------------------------------------------------------------------------|
G |--------------------------------------------------------------------------|
D#|--------------------------------------------------------------------------|
A#|--------------------------------------------------------------------------|
F |-5------5------5-8-4------4------4-7-5------5------5-8-4------4------4-7--|
A#|---0000---0000-------0000---0000-------8888---8888-------5555---5555------|

X2

C |-------------------------------------------------------|
G |-------------------------------------------------------|
D#|-------------------------------------------------------|
A#|-------------------------------------------------------|
F |-0--0-0-0-0--0-0-0-0--0-0-0-0-0-0-0-0------------------|
A#|-0--0-0-0-0--0-0-0-0--0-0-0-0-0-0-0-0-8-8-8-8-5-5-5-5--|
    .  . . . .  . . . .  . . . . . . . . . . . . . . . .

X2

Chorus:
C |----------------------------|
G |----------------------------|
D#|----------------------------|
A#|----------------------------|
F |-8------5------0------------|
A#|-8-(X8)-5-(X8)-0-(X16)------|

C |----------------------------|
G |----------------------------|
D#|----------------------------|
A#|----------------------------|
F |-3------5-------------------|
A#|-3-(X8)-5-(X8)-0-(X16)------|

X2

C |---------------------|
G |---------------------|
D#|---------------------|
A#|---------------------|
F |---------------------|
A#|-0-(x16)-0-4~-0-1~---|

Breakdown:
C |----------------------------------------------------------------|
G |----------------------------------------------------------------|
D#|----------------------------------------------------------------|
A#|----------------------------------------------------------------|
F |-0-0-0--0-0--0-0--0-0-0--00000000--0-0-0--0-0--0-0--------------|
A#|-0-0-0--0-0--0-0--0-0-0--00000000--0-0-0--0-0--0-0--0-4~-0-1~---|
    . . .  . .  . .  . . .  ........  . . .  . .  . .

C |-----------------------------------------------------------------------|
G |-----------------------------------------------------------------------|
D#|-----------------------------------------------------------------------|
A#|-----------------------------------------------------------------------|
F |-0-0-0--0-0--0-0--0-0-0--00000000--0-0-0--0-0--0-0----1-------1--------|
A#|-0-0-0--0-0--0-0--0-0-0--00000000--0-0-0--0-0--0-0--0---3-2-0---3-2----|
    . . .  . .  . .  . . .  ........  . . .  . .  . .

WIPE THAT SMILE RIGHT OFF YOUR...FFAAAACCCEEEE!!!
C |----------------------------------------------------------------|
G |----------------------------------------------------------------|
D#|----------------------------------------------------------------|
A#|----------------------------------------------------------------|
F |-0-0-0--0-0--0-0--0-0-0--00000000--0-0-0--0-0--0-0--------------|
A#|-1-1-1--1-1--1-1--1-1-1--11111111--1-1-1--1-1--1-1--0-4~-0-1~---|
    . . .  . .  . .  . . .  ........  . . .  . .  . .

C |----------------------------------------------------------------|
G |----------------------------------------------------------------|
D#|----------------------------------------------------------------|
A#|----------------------------------------------------------------|
F |-0-0-0--0-0--0-0--0-0-0--00000000--0-0-0--0-0--0-0--------------|
A#|-0-0-0--0-0--0-0--0-0-0--00000000--0-0-0--0-0--0-0--0-4~-0-1~---|
    . . .  . .  . .  . . .  ........  . . .  . .  . .

C |--------|
G |--------|
D#|--------|
A#|--------|
F |-0~-----|
A#|-0~-----|

I hope you like it:)
Добавлено: 11.03.2012
Другие материалы по этой песне:
  • Аккорды и текст

Страница создана 11.03.2012
http://primanota.ru/casino-madrid/life-sentencer-chords.htm
Привет, Гость.
Предлагаем пройти революционный курс по гитаре.
Подарок от PrimaNota.Ru, забирай!