PrimaNota.ru - самый крупный в мире бесплатный архив песенных текстов, аккордов, табулатур и нот


Casi Angeles - Hay Un Lugar - аккорды и текст, видео

Регистрация Запомнить меня
Войти через:  Facebook Google Twitter Vk Yandex Mail.ru

Casi Angeles - Hay Un Lugar - аккорды и текст, видео

Печатать
Просмотров: 374
Уроки эстрадного вокала в Санкт-Петербурге
Hay Un Lugar
Casi Angeles
      A     Am    Bm    B7    C    C/A   Cm7  C#dim   
E-----0-----0-----2-----2-----0-----0-----3-----0-----|
B-----2-----1-----3-----0-----1-----1-----4-----2-----|
G-----2-----2-----4-----2-----0-----0-----3-----0-----|
D-----2-----2-----4-----1-----2-----2-----5-----2-----|
A-----0-----0-----2-----2-----3-----0-----3-----4-----|
E-----------------------------------------------------|

      D     Dm   Dsus4  Em   Em/D   F#    G
E-----2-----1-----3-----0-----0-----2-----3
B-----3-----3-----3-----0-----0-----2-----3
G-----2-----2-----2-----0-----0-----3-----0
D-----0-----0-----0-----2-----0-----4-----0
A-----------------------2-----2-----4-----2
E-----------------------0-----0-----2-----3

G  F#  Am  Dsus4  D  

G  F#  Am  Dsus4  D


G        Bm           C/A
Hay un lugar al que me voy
            Dsus4 D
Cuando estoy triste
G        F#          C/A
Es un lugar dentro de mi
           Dsus4 D
Que nunca viste
C           B7
Me lo invente
         Em Em/D    A
Para sentir que me quisiste

Am                   Dsus4 D
Es un lugar al que me voy
                G    D
Cuando estoy triste


      G      Em
Y si te vas
         C/A    Dsus4 D
También me voy
      G       Em
Y si no estas
         C/A    Dsus4 D
Tampoco estoy

         Dm
Y nada importa
       G
Nada sirve
      Cm7   C#dim
Nada vale
      C/A   D
Nada queda
         G
Sin tu amor


G       Bm        C/A
Un laberinto sin final
        Dsus4 D
Donde me pierdo

G         F#         C/A
Y corro y corro sin parar
           Dsus4 D
Y no te encuentro

C           B7
Y aunque de vos
         Em      Em/D        A
Quiera escapar, siempre me acuerdo
Am                   Dsus4 D
Que existe en mi algún lugar
           G     D
Donde te tengo


      G      Em
Y si te vas
         C/A    Dsus4 D
También me voy
      G       Em
Y si no estas
         C/A    Dsus4 D
Tampoco estoy

         Dm
Y nada importa
       G
Nada sirve
      Cm7   C#dim
Nada vale
      C/A   D
Nada queda
         G
Sin tu amor


      G      Em
Y si te vas
         C/A    Dsus4 D
También me voy
      G       Em
Y si no estas
         C/A    Dsus4 D
Tampoco estoy

         Dm
Y nada importa
       G
Nada sirve
      Cm7   C#dim
Nada vale
      C/A   Dsus4
Nada queda
      D  G
Sin tu amor.
Добавлено: 22.12.2013
Вам также может быть интересно:
Другие материалы по этой песне:
  • Аккорды и текст

Страница создана 22.12.2013
http://primanota.ru/casi-angeles/hay-un-lugar-chords.htm
Привет, Гость.
Предлагаем пройти революционный курс по гитаре.
Подарок от PrimaNota.Ru, забирай!