PrimaNota.ru - самый крупный в мире бесплатный архив песенных текстов, аккордов, табулатур и нот


Cash Cash - Your Love - таба, видео

Регистрация Запомнить меня
Войти через:  Facebook Google Twitter Vk Yandex Mail.ru

Cash Cash - Your Love - таба, видео

Печатать
Просмотров: 147
Уроки эстрадного вокала в Санкт-Петербурге
Tabbed by: Grayson Carr

Standard Tuning

The intro and verse go like this...

E|------------------------------------------------------------------|
B|------------------------------------------------------------------|
G|-9-9-9-9--9-9-9--9-9-9--------------------------------------------|
D|-9-9-9-9--9-9-9--9-9-9--9-9-9-9/11-11-11--11-11-11--11-11-11-11\9-|
A|-7-7-7-7--7-7-7--7-7-7--9-9-9-9/11-11-11--11-11-11--11-11-11-11\9-|
E|------------------------7-7-7-7/-9--9--9---9--9--9---9--9--9--9\7-|


Then the part before the chorus...

Because time's in my way,
E|------------------------|
B|------------------------|
G|------------------------|
D|------10----------------|
A|------10----------------|
E|-------8----------------|

But there's a chance for us today
E|--------------------------------|
B|--------------------------------|
G|--------------------------------|
D|------------9-------------------|
A|------------9-------------------|
E|------------7-------------------|


Chorus...

So, wrap me up in your love girl, yeah
E|-------------------------------------|
B|-------------------------------------|
G|-9-----------------------------------|
D|-9--------9----------11--------------|
A|-7--------9----------11--------------|
E|----------7-----------9--------------|

    Just wrap me up in your love, oh
E|-----------------------------------|
B|-----------------------------------|
G|-9---------------------------------|
D|-9-------------9----------11-------|
A|-7-------------9----------11-------|
E|---------------7-----------9-------|

    I can't stop it, no I can't make you stay
E|--------------------------------------------|
B|--------------------------------------------|
G|-9------------------------------------------|
D|-9-----------9--------11--------------------|
A|-7-----------9--------11--------------------|
E|-------------7---------9--------------------|

    And wrap me up in your love
E|------------------------------|
B|------------------------------|
G|-9----------------------------|
D|-9------------9----------7----|
A|-7------------9----------7----|
E|--------------7----------5----|


Ending...

The biggest regret I'll ever have
E|--------------------------------|
B|--------------------------------|
G|--------------------------------|
D|--4---------------------6-------|
A|--4---------------------6-------|
E|--2---------------------4-------|

was hating myself for a check I could've
E|---------------------------------------|
B|---------------------------------------|
G|---------------------------------------|
D|--8-------------------------9----------|
A|--8-------------------------9----------|
E|--7-------------------------7----------|

   cashed and now I stand here waiting
E|-------------------------------------|
B|-------------------------------------|
G|-------------------------------------|
D|-11----------------------------------|
A|-11----------------------------------|
E|--9----------------------------------|

   ready to make this work
E|-------------------------|
B|-------------------------|
G|-------------------------|
D|-9-------------13---11---|
A|-9-------------13---11---|
E|-7-------------11----9---|


 So, wrap me up in your love girl, yeah
E|--------------------------------------|
B|--------------------------------------|
G|-11-----------------------------------|
D|-11--------11---------13--------------|
A|--9--------11---------13--------------|
E|------------9---------11--------------|

     Just wrap me up in your love, oh
E|------------------------------------|
B|------------------------------------|
G|-11---------------------------------|
D|-11-------------11---------13-------|
A|--9-------------11---------13-------|
E|-----------------9---------11-------|

    I can't stop it, no I can't make you stay
E|--------------------------------------------|
B|--------------------------------------------|
G|-11-----------------------------------------|
D|-11----------11-------13--------------------|
A|--9----------11-------13--------------------|
E|--------------9-------11--------------------|

     And wrap me up in your love
E|-------------------------------|
B|-------------------------------|
G|-11----------------------------|
D|-11------------11---------9----|
A|--9------------11---------9----|
E|----------------9---------7----|
Добавлено: 29.05.2012
Другие материалы по этой песне:
  • Аккорды и текст

Страница создана 29.05.2012
http://primanota.ru/cash-cash/your-love-chords.htm
Привет, Гость.
Предлагаем пройти революционный курс по гитаре.
Подарок от PrimaNota.Ru, забирай!