PrimaNota.ru - самый крупный в мире бесплатный архив песенных текстов, аккордов, табулатур и нот


Casey Jones - Hammer The Nails - таба, видео

Регистрация Запомнить меня
Войти через:  Facebook Google Twitter Vk Yandex Mail.ru

Casey Jones - Hammer The Nails - таба, видео

Печатать
Просмотров: 198
Casey Jones - Hammer The Nails
I Hope We're Not The Last
Tab by: Elias Marin
e-mail: eliasstaticx@hotmail.com
Tuning: Drop C# (Db,Ab,Db,Gb,Bb,Eb)

INTRO 
eb- --------------------------------------------------------------------|
Bb----------------------------------------------------------------------|
Gb-8------10--11-----14------13-11----------3---------3-----8--------6--|
Db-x—(X3)-x---x-(X4)—-x-(X3)-x--x-(X4)----4---4-----4---4---8-(FAST)-6--|(X2)
Ab-6------8---9------12------11-9------0-2-------0-2---------6-------4--|
Db----------------------------------------------------------------------|

vERSE PART 1
eb- ----------------------------|
Bb------------------------------|
Gb---8-----4--6-----------------|
Db---8-----4--6-----------------|  (X2)
Ab---6-----2--4-----------------|
Db------------------------------|
  PM .     .  .        

vERSE PART 2
eb- -----------------------------------------------|
Bb-------------------------------------------------|
Gb----8-----8-----------3---------3----------------|
Db----8(X3)-8(X2)-----4---4-----4---4--------------|  (X4)
Ab----6-----6-----0-2-------0-2--------------------|
Db-------------------------------------------------|
   PM .

vERSE PART 3
eb- ------------------------------------------------------------------|
Bb---------------------7-7-7-7-7-6-4-4-4-4-4-0-2-2-2-2-2-2-2-2-2-2----|
Gb---8---4--6---------------------------------------------------------|
Db---8---4--6---(X2)--------------------------------------------------|  (X2)
Ab---6---2--4---------------------------------------------------------|
Db--------------------------------------------------------------------|
          
BRIDGE
eb- ----------------------------------------------------|
Bb------------------------------------------------------|
Gb------------------------------------------------------|
Db-1----1-1-------1-1-----1---1-1------4--3-------------|  
Ab-1----1-1--(X3)-1-1-----1---1-1-(X3)-4--3-------------|
Db-1----1-1-------1-1-----1---1-1------4--3-------------|
     PM . .        

vERSE PART 3
eb- ------------------------------------------------------------------|
Bb---------------------7-7-7-7-7-6-4-4-4-4-4-0-2-2-2-2-2-2-2-2-2-2----|
Gb---8---4--6---------------------------------------------------------|
Db---8---4--6---(X2)--------------------------------------------------| (X2)
Ab---6---2--4---------------------------------------------------------|
Db--------------------------------------------------------------------|


OUTRO 
eb- -----------------------------------------------------------------------|
Bb-------------------------------------------------------------------------|
Gb-8------10--11-----14------13-11-----------3---------3-----8--------6--8-|
Db-x—(X3)-x---x-(X4)—-x-(X3)-x--x-(X4)-----4---4-----4---4---8-(FAST)-6--8-| 
Ab-6------8---9------12------11-9-------0-2-------0-2--------6--------4--6-|
Db-------------------------------------------------------------------------|


LYRICS
When will you see
The words I scream are reality
Pure, clean and free
I'm not these things, they are me
Growing up and growing old
Some will try to pull me down
But I won't let them change my ways
I will always be this free
And nothing you will say
Will keep me from my ways
And nothing you can do
Will ever change me into you
I live my life for me not you
I'm these words so fuck you
Straight edge is me
Until the day I die
Добавлено: 27.09.2013
Другие материалы по этой песне:
  • Аккорды и текст

Страница создана 09.09.2013
http://primanota.ru/casey-jones/hammer-the-nails-chords.htm
Привет, Гость.
Предлагаем пройти революционный курс по гитаре.
Подарок от PrimaNota.Ru, забирай!