PrimaNota.ru - самый крупный в мире бесплатный архив песенных текстов, аккордов, табулатур и нот


Cas Haley - Better - таба, видео

Регистрация Запомнить меня
Войти через:  Facebook Google Twitter Vk Yandex Mail.ru

Cas Haley - Better - таба, видео

Печатать
Просмотров: 103
(/) Slide Up  (\) Slide Down  (h) Hammer On  (p) Pull Off  (b) Bend (r) Release (v) Vibrato

"Better" by Cas Haley

This is my first tab, thought I would give it a try. I believe this is correct. I tabbed 
this from http://www.youtube.com/watch?v=T72xNN-Su58, and it is not too difficult of a 
song. Listen to the song for the rythem.

Intro
E|--------x-----------------------x------------------------------------|
B|-----5--x--3/5-5-5---3-3-3-3--5-x--3/5--5-5---3-3--------------------|
G|----5---x---------------------5-x------------------------------------|
D|---5----x--3/5-5-5---3-3-3-3--5-x--3/5--5-5---3-3----0h2h3p2p0-------|
A|--3-----x---------------------3-x------------------3-----------------|
E|--------x--3/5-5-5---3-3-3-3----x--3/5--5-5---3-3--------------------|

Verse - This riff is repeated throughout the verse
E|--------x---------------------|
B|-----5--x--3/5-5-5---3-3-3-3--|
G|-----5--x---------------------|
D|-----5--x--3/5-5-5---3-3-3-3--|
A|-----3--x---------------------|
E|--------x--3/5-5-5---3-3-3-3--|

Chorus
      "Can do better,  can do better,  can do better.."
E|--------------------------------------------|
B|-----5---------------------------------3-3--|
G|-----5--------------------------------------|
D|-----5---------------5-------------- 3-3-3--|
A|-----3--------------------------------------|
E|---------------------5---------------3-3-3--|

That is basically the entire song. Enjoy.
Добавлено: 28.07.2013
Вам также может быть интересно:
Другие материалы по этой песне:
  • Аккорды и текст

Страница создана 28.07.2013
http://primanota.ru/cas-haley/better-chords.htm
Привет, Гость.
Предлагаем пройти революционный курс по гитаре.
Подарок от PrimaNota.Ru, забирай!