PrimaNota.ru - самый крупный в мире бесплатный архив песенных текстов, аккордов, табулатур и нот


Cary Brothers - Supposed To Be - бас-таба, видео

Регистрация Запомнить меня
Войти через:  Facebook Google Twitter Vk Yandex Mail.ru

Cary Brothers - Supposed To Be - бас-таба, видео

Печатать
Просмотров: 146
Band: cary brothers
Album: all the rage ep
Song: supposed to be

Intro

G|------------------------------------------------------------------|
D|------------------------------------------------------------------| 
A|------------------------------------------------------------------|
E|-----------------555555555555555533333333333333335555555555555555-|

Verse 0:13

G|------------------------------------------------------------------|
D|------------------------------------------------------------------| 
A|-5555555555555557-------------------------------------------------|
E|-----------------555555555555555533333333333333335555555555555555-|

G|--------------------------------------------------|
D|--------------------------------------------------| 
A|-5557-7775557-777------------5-4------------------|
E|-----------------555555555555---53333333333333333-|

Chorus 0:36

G|-----------------------------------|
D|-------------------------5554--2-2-| 
A|-222222224444444455555555----------| x2
E|-----------------------------------|

G|-----------------------------------|
D|-------------------------5554--2-2-| 
A|-222222220000000055555555----------|
E|-----------------------------------|

G|-----------------------------------|
D|-----------------------------------| 
A|-22222222444444445~----------------|
E|-----------------------------------|

Pre-verse 1:03

G|------------------------------------------------------------------|
D|------------------------------------------------------------------| 
A|------------------------------------------------------------------|
E|-----------------555555555555555533333333333333335555555555555555-|

Verse 1:14

G|------------------------------------------------------------------|
D|------------------------------------------------------------------| 
A|-5555555555555557-------------------------------------------------|
E|-----------------555555555555555533333333333333335555555555555555-|

G|--------------------------------------------------|
D|--------------------------------------------------| 
A|-5557-7775557-777------------5-4------------------|
E|-----------------555555555555---53333333333333333-|

Chorus 1:38

G|-----------------------------------|
D|-------------------------5554--2-2-| 
A|-222222224444444455555555----------| x2
E|-----------------------------------|

G|-----------------------------------|
D|-------------------------5554--2-2-| 
A|-222222220000000055555555----------|
E|-----------------------------------|

G|-----------------------------------|
D|-------------------------5554--2-2-| 
A|-222222224444444455555555----------| x3
E|-----------------------------------|

G|--------------------------------------------------|
D|-----------------44444444555555557777777799999999-|
A|-2222222244444444---------------------------------|
E|--------------------------------------------------|

2:29

G|-----------------------------------|
D|-------------------------5554--2-2-| 
A|-222222224444444455555555----------| x3
E|-----------------------------------|

G|-----------------------------------|
D|-----------------------------------| 
A|-22222222000000005~----------------|
E|-----------------------------------|
Добавлено: 31.05.2012
Другие материалы по этой песне:
  • Аккорды и текст

Страница создана 31.05.2012
http://primanota.ru/cary-brothers/supposed-to-be-chords.htm
Привет, Гость.
Предлагаем пройти революционный курс по гитаре.
Подарок от PrimaNota.Ru, забирай!