PrimaNota.ru - самый крупный в мире бесплатный архив песенных текстов, аккордов, табулатур и нот


Cartola - Preciso Me Encontrar - таба, видео

Регистрация Запомнить меня
Войти через:  Facebook Google Twitter Vk Yandex Mail.ru

Cartola - Preciso Me Encontrar - таба, видео

Печатать
Просмотров: 286
Авторы музыки: Candeia
Авторы текста: Candeia
----------------------------------------------------------------------------
                             prciso me encontrar - cartola
----------------------------------------------------------------------------
www.brazilianmusic.com/cartola/  or just google cartola

Tabbed by:*chief*
Email:badgerfighter@hotmail.com

Tuning:

this is the basic tune for this song from the film city of god, i simplified it to make 
easier for myself and its a nice tune to play and variations can be thrown in quite 
ill get round to figuring the real tune out one day.

e|-------1--------1----------1-----------------1---0-----------------------|
B|-----3--------3----------3---3-------------3---3---3---------------------|
G|---2--------2----------2-------2---------0-----------0-------------------|
D|-0-------------------3-----------3-----2---------------2-----------------|
A|----------3--------1-----------------------------------------------------|
E|-------------------------------------3-----------------------------------|

e|-----1-------------------------1--------------------0h1------------------|
B|--------------3--------------3---3----------------3-----3----------------|
G|---2---2----2---2----------2--------------------0---------0--------------|
D|-0-----------------------3--------------------2-------------2------------|
A|----------3--------3-2-1--------------------0----------------------------|
E|------------------------------------1-2-3-4------------------------------|

e|-------1--------1----------1----------------1---0------------------------|
B|-----3--------3----------3---3------------3---3---3----------------------|
G|---2--------2----------2-------2--------0--------------------------------|
D|-0-------------------3-----------3----2----------------------------------|
A|----------3--------1-----------------------------------------------------|
E|------------------------------------3---------------3-4------------------|

e|---------0h1-------------------------------------------------------------|
B|-------3-----3-----------------------------------------------------------|
G|-----0---------0---------------------------------------------------------|
D|---2-------------2-------------------------------------------------------|
A|-0-----------------------------------------------------------------------|
E|-------------------------------------------------------------------------|

e|-----1---------------------------------0--------1------------------------|
B|--------------3----------------------3---3------3------------------------|
G|---2---2----2---2------------------0-------0----2------------------------|
D|-0-----------------------3---2---2-----------2--0------------------------|
A|----------3--------3-2-1-------0----------------0------------------------|
E|---------------------------3---------------------------------------------|

| /  slide up
| \  slide down
| h  hammer-on
| p  pull-off
| ~  vibrato
| +  harmonic
| x  Mute note
===============================================================================
Добавлено: 23.06.2012
Другие материалы по этой песне:
  • Аккорды и текст

Страница создана 23.06.2012
http://primanota.ru/cartola/preciso-me-encontrar-chords.htm
Привет, Гость.
Предлагаем пройти революционный курс по гитаре.
Подарок от PrimaNota.Ru, забирай!