PrimaNota.ru - самый крупный в мире бесплатный архив песенных текстов, аккордов, табулатур и нот


Carter Family - East Virginia Blues No 2 - таба, видео

Регистрация Запомнить меня
Войти через:  Facebook Google Twitter Vk Yandex Mail.ru

Carter Family - East Virginia Blues No 2 - таба, видео

Печатать
Просмотров: 120
-------------------------------------------------------------------------------
                East Virginia Blues, No. 2 - The Carter Family
-------------------------------------------------------------------------------

This is my attempt at a tab for "East Virginia Blues, No. 2" as played by the
Carter Family on disc 8 of the In the Shadow of Clinch Mountain boxset. To play
along with the cd, put a capo on the third fret so you are in the key of Eb.
Listening to the song this is almost certainly how Ma Carter played it.

Also note that this arrangement obviously work for "East Virgina Blues" or for 
example "Greenback Dollar," which is written to the same tune.

To play it like Ma Carter, use your thumb for the melody notes and brush 
across the strings with your fingers for the chords (V indicates a down stroke and 
^ indicates an up stroke). 

Please post a comment if you notice any mistakes.


Tuning: Standard (Capo on 3rd fret)


Intro/Instrumental Break:

             C                                 C 
                  V ^    V ^                         V  V ^ V ^    V ^
e|---------|------0-0----0-0----------------|--------0--0-0-0-0----0-0---------|
B|---------|------1-1----1-1----------------|--------1--1-1-1-1----1-1---------|
G|------0--|------0-0----0-0-------------0--|--------0--0-0-0-0----0-0------0--|
D|--0h2----|--0h2------2------2p0----0h2----|--2p0----------------------0h2----|
A|---------|----------------------3---------|------3-------------3-------------|
E|---------|--------------------------------|----------------------------------|
    4   +     1   +    2 +    3   +  4   +     1   +    2 +      3 +    4   +


   F                                 C
        V ^    V ^    V ^                 V ^    V ^    V ^
e|------1-1----1-1----1-1----------|------0-0----0-0----0-0----------|
B|------1-1----1-1----1-1----------|------1-1----1-1----1-1----------|
G|--0h2-2-2--2-2-2--2-2-2--0-------|------0-0----0-0----0-0------0---|
D|---------------------------0-----|--0h2------2------2------0h2-----|
A|---------------------------------|---------------------------------|
E|---------------------------------|---------------------------------|
    1   +    2 +    3 +    4 +        1   +    2 +    3 +    4   +
                   
   F                                 C
        V ^    V ^                          V  V ^ V ^    V ^
e|------1-1----1-1-----------------|--------0--0-0-0-0----0-0--------|
B|------1-1----1-1-----------------|--------1--1-1-1-1----1-1--------|
G|--0h2-2-2--2-2-2--2p0--------0---|--------0--0-0-0-0----0-0--------|
D|----------------------0--0h2-----|--2p0----------------------2-0---|
A|---------------------------------|------3-------------3------------|
E|---------------------------------|---------------------------------|
    1   +    2 +    3   +  4   +      1   +    2 +      3 +    4 +


   G                                 C
      V ^    V ^                        V ^    V ^    V ^
e|----3-3----3-3-------------------|----0-0----0-0----0-0------------|
B|----0-0----0-0-------------------|----1-1----1-1----1-1------------|
G|----0-0----0-0-------------------|----0-0----0-0----0-0------------|
D|---------------------------------|---------------------------------|
A|--2-------------2p0----0-2-------|--3-------------3----------------|
E|---------3----------3------------|---------3-------------3---------|
    1 +    2 +    3   +  4 +          1 +    2 +    3 +    4 


[Intro]

C
My sweetheart has gone and left me
       F               C
And my little sisters, too
        F             C
And I'm left alone in sadness
        G                  C
Lord, I don't know what to do

C
All this world has turned against me
            F             C    
Nothing but trouble do I see
           F          C
There will be no more pleasure
        G                    C
In this whole wide world for me


[Instrumental break]

Oh, I am just from East Virginia
With a heart so brave and true
And I learned to love a maiden
With eyes of heavenly blue

That same day I packed my suitcase
And I started to go away
But she met me at the station
Saying, darling, won't you stay

[Instrumental break]

Oh, I am dying, Captain, dying
Won't you take these words for me
Take them over to the jailhouse
Let this whole wide world go free
Добавлено: 05.06.2013
Другие материалы по этой песне:
  • Аккорды и текст

Страница создана 05.06.2013
http://primanota.ru/carter-family/east-virginia-blues-no-2-chords.htm
Привет, Гость.
Предлагаем пройти революционный курс по гитаре.
Подарок от PrimaNota.Ru, забирай!