PrimaNota.ru - самый крупный в мире бесплатный архив песенных текстов, аккордов, табулатур и нот


Carter Family - Bury Me Under The Weeping Willow - таба, видео

Регистрация Запомнить меня
Войти через:  Facebook Google Twitter Vk Yandex Mail.ru

Carter Family - Bury Me Under The Weeping Willow - таба, видео

Печатать
Просмотров: 101
Авторы музыки: A.P. Carter

Bury Me Beneath The Weeping Willow Tree
The Carter Family

as you can listen here : http://www.youtube.com/watch?v=YCniFuHlPG0



CAPO 2nd fret.


Song patter : A D A E
              A D A E-A all over again and again


Verse 1 :
       A                 D
    My heart is sad and I'm in sorrow,
            A         E
    for the only one I love,
         A                   D
    when shall I see him, oh, no never,
          A          E        A
   'till I meet him in heaven above.


Chorus :
    A                  D
Oh, bury me under the weeping willow,
     A                        E
yes, under the weeping willow tree.
   A                 D
So he may know where I am sleeping,
    A               E         A
and perhaps he will weep over me.

Verse 2 :
    They told me that he did not love me,
    I could not believe it was true,
    until an angel softly whispered,
    "He has proven untrue to you."


Chorus :
Oh, bury me under the weeping willow
Yes, under the weeping willow tree
So he may know where I am sleeping
And perhaps he will weep for me


Instrumental : (around 1'13'')
e----------------------------------------------------------------|
B----------------------------------------------------------------|
G----------------------------------------------------------------|
D--------2--2h4-2------------------------------2-----------------|
A----2h4----------4h2-0--0-0-2-0-------0h2-4-0---4-2----2--------|
E--------------------------------2-0----------------------0-2-4--|



e----------------------------------------------------------------|
B----------------------------------------------------------------|
G----------------------------------------------------------------|
D--------2--2h4-2------------------------------------------------|
A-----------------4h2-0--0-0-2-0--------4-2-----0----------------|
E--------------------------------2-0--------2-4------------------|

Verse 3 :
    Tomorrow was our wedding day,
    but, oh Lord, oh, where is he?
    He's gone to seek him another bride,
    and he cares no more for me.


Chorus :
Oh, bury me under the weeping willow
Yes, under the weeping willow tree
So he may know where I am sleeping
And perhaps he will weep for me

Instrumental (around 2') (same instrumental than above)

Verse 4 :
Oh, bury me under the violets blue
To prove my love to him
Tell him that I would die to save him
For his love I never could win


Chorus :
Oh, bury me under the weeping willow
Yes, under the weeping willow tree
So he may know where I am sleeping
And perhaps he will weep for me
Добавлено: 14.11.2013
Другие материалы по этой песне:

Страница создана 12.08.2013
http://primanota.ru/carter-family/bury-me-under-the-weeping-willow-chords.htm
Привет, Гость.
Предлагаем пройти революционный курс по гитаре.
Подарок от PrimaNota.Ru, забирай!