PrimaNota.ru - самый крупный в мире бесплатный архив песенных текстов, аккордов, табулатур и нот


Carter Burwell - I Know What You Are - таба, видео

Регистрация Запомнить меня
Войти через:  Facebook Google Twitter Vk Yandex Mail.ru

Carter Burwell - I Know What You Are - таба, видео

Печатать
Просмотров: 508
Уроки эстрадного вокала в Санкт-Петербурге
Carter Burwell - I Know What You Are

I've decided to make a tab of this song because it is a good song, and there
doesn't seem to be a tab for it anywhere!
This Tab Has Been Made From The Ear.


Intro (0:14-0:36)

e|-------------------------------------------13-12-----------------|
B|----------------------13-12--------------------------------------|
G|--11-12----------------------------------------------------------|
D|-----------------------------------------------------------------|
A|-----------------------------------------------------------------|
E|-----------------------------------------------------------------|

(0:45-1:01)
e|---------------------------------------------------------------------|
B|--13-12-10-12------12-11-8--------13-12-8----------------------------|
G|---------------------------9--------------8-9------------------------|
D|---------------------------------------------------------------------|
A|---------------------------------------------------------------------|
E|---------------------------------------------------------------------|


(1:10-1:30)
e|---------------------------------------------------------------------|
B|---------------------------------------------------------------------|
G|---------------------------------------------------------------------|
D|--14-13----------------14-13---------------14-13---------------------|
A|---------------------------------------------------------------------|
E|---------------------------------------------------------------------|


Guitar 1 (1:41-2:02)
e|---------------------------------------------------------------------|
B|--13-12-----13-12-10-12-----12-11-8--------13-12-8-------------------|
G|------------------------------------9--------------8-9---------------|
D|---------------------------------------------------------------------|
A|---------------------------------------------------------------------|
E|---------------------------------------------------------------------|


Guitar 2 (Comes in at 1:56 while guitar 1 is playing)
e|--7-0----7-0----7-0----7-0----10-0----10-0----8-0----8-0-------------|
B|------8------8------8------8-------8-------8------8------8-----------|
G|---------------------------------------------------------------------|
D|---------------------------------------------------------------------|
A|---------------------------------------------------------------------|
E|---------------------------------------------------------------------|
                                            Repeat till end of the song



Thanks Hope This Helps As Its My First Tab And It Is Accurate.
Brilliant Piece Of Music :)
Добавлено: 29.06.2013
Другие материалы по этой песне:
  • Аккорды и текст

Страница создана 29.06.2013
http://primanota.ru/carter-burwell/i-know-what-you-are-chords.htm
Привет, Гость.
Предлагаем пройти революционный курс по гитаре.
Подарок от PrimaNota.Ru, забирай!