PrimaNota.ru - самый крупный в мире бесплатный архив песенных текстов, аккордов, табулатур и нот


Cartel - Write This Down - текст песни, таба, видео

Регистрация Запомнить меня
Войти через:  Facebook Google Twitter Vk Yandex Mail.ru

Cartel - Write This Down - текст песни, таба, видео

Печатать
Просмотров: 184
Уроки эстрадного вокала в Санкт-Петербурге
Cartel - Write This Down

Guitar Tab by Daniel Madsen

INTRO
E----------------------------------|
B-----------------7-75577557755775-|
G-7-76677667766776-----------------|
D----------------------------------|
A----------------------------------|
D----------------------------------|

CHORUS
E--------------------------------------------|
B--------------------------------------------|
G--------------------------------------------| x2
D-2-20-02---455550000-99-77-5555-455554-0000-|
A-2-20-02---455550000-99-77-5555-455554-0000-|
D-2-20-02---455550000-99-77-5555-455554-0000-|

VERSE 1
E--------------------------------------------------------------|
B--------------------------------------------------------------|
G-------------------------------------7-6------6-76------------|
D-4-444444444444447-777777777777779-9----7-5-5-----70000777777-|
A-4-444444444444447-777777777777779-9------5-5------0000777777-|
D-4-444444444444447-777777777777779-9------5-5------0000777777-|
     .............   .............

E---------------------------------------------------------------------|
B---------------------------------------------------------------------|
G-----7-6------6-76----------------------------------------7-7777-777-|
D-9-9----7-5-5-----700007-77777712-12121212-121212-12-1212-7-7777-777-|
A-9-9------5-5------00007-777777-9--9-9-9-9--9-9-9--9--9-9-5-5555-555-|
D-9-9------5-5------00007-777777-9--9-9-9-9--9-9-9--9--9-9-5-5555-555-|
                           .....
CHORUS
E--------------------------------------------|
B--------------------------------------------|
G--------------------------------------------| x2
D-2-20-02---455550000-99-77-5555-455554-0000-|
A-2-20-02---455550000-99-77-5555-455554-0000-|
D-2-20-02---455550000-99-77-5555-455554-0000-|

VERSE 2
E--------------------------------------------------------------|
B--------------------------------------------------------------|
G-------------------------------------7-6------6-76------------|
D-4-444444444444447-777777777777779-9----7-5-5-----70000777777-|
A-4-444444444444447-777777777777779-9------5-5------0000777777-|
D-4-444444444444447-777777777777779-9------5-5------0000777777-|
     .............   .............

E------------------------------|
B------------------------------|
G-----7-6------6-76------------|
D-9-9----7-5-5-----70000-77777-|
A-9-9------5-5------0000-77777-|
D-9-9------5-5------0000-77777-|

E--------------------------------------------------|
B--------------------------------------------------|
G--------------------------------------------------|
D-99999-55555-00000-77777-99999-55555-00000-77777--|
A-99999-55555-00000-77777-99999-55555-00000-77777--|
D-99999-55555-00000-77777-99999-55555-00000-77777--|


BRIDGE
E--------------------------------------|
B--------------------------------------|
G-----------------7-7777-777-----------|
D-5-5555-555-5-55-7-7777-777-----7-----|
A-5-5555-555-5-55-5-5555-555-5-7---7-5-|
D-5-5555-555-5-55----------------------|

E--------------------------------|
B--------------------------------|
G--------------------------------|
D-5-5555-555-5-55-7-7777-7-222-4-|
A-5-5555-555-5-55-7-7777-7-222-4-|
D-5-5555-555-5-55-7-7777-7-222-4-|


E--------------------------------------|
B--------------------------------------|
G-----------------7-7777-777-----------|
D-5-5555-555-5-55-7-7777-777-----7-----|
A-5-5555-555-5-55-5-5555-555-5-7---7-5-|
D-5-5555-555-5-55----------------------|

E----------------------------------------------|
B----------------------------------------------|
G----------------------------------------------|
D-5-5555-555-5-55-2-2002-2-2002-2-2002-2-2002--|
A-5-5555-555-5-55-2-2002-2-2002-2-2002-2-2002--|
D-5-5555-555-5-55-2-2002-2-2002-2-2002-2-2002--|


ENDING
E---------------------------------------------------|
B------------------7-755-----------------5-75-------|
G----------------------76-------7-6----------7------|
D-9999999955555555--------5-9-9----7-5-5------00007-|
A-9999999955555555----------9-9------5-5------00007-|
D-9999999955555555----------9-9------5-5------00007-|
  ................

E----------------------------------------------------------------|
B----------------------------------------------------------------|
G----------------------------------------------------------------|
D-77777-99999-55555-00000-77777-99999-55555-00000-77777-2-2002-2-|
A-77777-99999-55555-00000-77777-99999-55555-00000-77777-2-2002-2-|
D-77777-99999-55555-00000-77777-99999-55555-00000-77777-2-2002-2-|
Добавлено: 29.02.2012
Другие материалы по этой песне:
  • Аккорды и текст

Страница создана 29.02.2012
http://primanota.ru/cartel/write-this-down-chords.htm
Привет, Гость.
Предлагаем пройти революционный курс по гитаре.
Подарок от PrimaNota.Ru, забирай!