PrimaNota.ru - самый крупный в мире бесплатный архив песенных текстов, аккордов, табулатур и нот


Cartel - Tonight - текст песни, таба, видео

Регистрация Запомнить меня
Войти через:  Facebook Google Twitter Vk Yandex Mail.ru

Cartel - Tonight - текст песни, таба, видео

Печатать
Просмотров: 151
[guitar 1]
Intro:
eb-------------| X4
Bb-------------|
Gb-------------|
Db-12/0-5555/7-|
Ab-12/0-5555/7-|
Db-12/0-5555/7-|


[guitar 2]
Intro:
eb-------------| X4
Bb-------------|
Gb------7777/9-|
Db-12/0-xxxx/x-|
Ab-12/0-5555/7-|
Db-12/0--------|

[guitar 1]
Verse 1
eb------------------------------| 
Bb------------------------------|
Gb------------------------------|
Db-12/0--12/0--12/0--12/0-5555/7|
Ab-12/0--12/0--12/0--12/0-5555/7|
Db-12/0--12/0--12/0--12/0-5555/7|

[guitar 1]
Verse 1 cont.
eb-------------| X4
Bb-------------|
Gb-------------|
Db-12/0-5555/7-|
Ab-12/0-5555/7-|
Db-12/0-5555/7-|


[guitar 2]
Verse 1
eb-------------| X4
Bb-------------|
Gb------7777/9-|
Db-12/0-xxxx/x-|
Ab-12/0-5555/7-|
Db-12/0--------|


[guitar 1]
chorus:
eb--------------------| x2
Bb--------------------|
Gb-7-x16--------------|
Db-7-----5-x16-5555/7-|
Ab-5-----5-----5555/7-|
Db-------5-----5555/7-|

Repeat Intro, Verse, and Chorus.

bridge:
[guitar 1]
eb---------| X8
Bb---------|
Gb---------|
Db-12/0xxx-|
Ab-12/0xxx-|
Db-12/0xxx-|

[guitar 2]
eb--101010--141414---171717171717| [some weird effect used here...]
Bb-------------------------------|
Gb-------------------------------|
Db-------------------------------|
Ab-------------------------------|
Db-------------------------------|

eb---------| X8
Bb---------|
Gb---------|
Db-12/0xxx-|
Ab-12/0xxx-|
Db-12/0xxx-|

chorus:
eb--------------------| x2
Bb--------------------|
Gb-7-x16--------------|
Db-7-----5-x16-5555/7-|
Ab-5-----5-----5555/7-|
Db-------5-----5555/7-|

[guitar 1]
outro:
eb-------------| X4
Bb-------------|
Gb-------------|
Db-12/0-5555/7-|
Ab-12/0-5555/7-|
Db-12/0-5555/7-|


[guitar 2]
outro:
eb-------------| X4
Bb-------------|
Gb------7777/9-|
Db-12/0-xxxx/x-|
Ab-12/0-5555/7-|
Db-12/0--------|


Добавлено: 16.04.2012
Другие материалы по этой песне:
  • Аккорды и текст

Страница создана 16.04.2012
http://primanota.ru/cartel/tonight-chords.htm
Привет, Гость.
Предлагаем пройти революционный курс по гитаре.
Подарок от PrimaNota.Ru, забирай!