PrimaNota.ru - самый крупный в мире бесплатный архив песенных текстов, аккордов, табулатур и нот


Cartel - This Is Who We Are - текст песни, таба, видео

Регистрация Запомнить меня
Войти через:  Facebook Google Twitter Vk Yandex Mail.ru

Cartel - This Is Who We Are - текст песни, таба, видео

Печатать
Просмотров: 162
Уроки эстрадного вокала в Санкт-Петербурге
Cartel
This Is Who We Are
Cartel 2007

Alright, I've been lookin around for how to play this song, and I finally found a video 
youtube with a guy named Justin playing the cover (right here: 
and I decided to tab the song out for all of you while I figure it out myself.

Drop Db (Db Ab Db Gb Bb eb)

Intro I

eb|----------------------------------|
Bb|------8-8-8-8-8-8-----------5-5-5-|
Gb|------7-7-7-7-7-7-----------6-6-6-|
Db|--5-5-5-5-5-5-5-5-7-7-7-4-4-4-4-4-|
Ab|--5-5-------------7-7-7-4-4-------|
Db|--5-5-------------7-7-7-4-4-------|

Intro II

eb|----------------------------------|
Bb|------8-8-8-8-8-8-----------5-5-5-|
Gb|------7-7-7-7-7-7-----------6-6-6-|
Db|--5~5-5-5-5-5-5-5-7-7-7-4-4-4-4-4-|
Ab|--5~5-------------7-7-7-4-4-------|  x6
Db|--5~5-------------7-7-7-4-4-------|
     ^
    This note gets held longer then it did the first time around

eb|----------------------------------|
Bb|------8-8-8-8-8-8-----------------|
Gb|------7-7-7-7-7-7-----------------|
Db|--5~5-5-5-5-5-5-5-7-7-7-4-4-------|
Ab|--5~5-------------7-7-7-4-4-------|
Db|--5~5-------------7-7-7-4-4-------|

Verse I
(This is pretty much the same, just simplified)

Patience, child it will find you
  Your deepest dreams will guide you
    The moment that you're born
eb|----------------|
Bb|----------------|
Gb|----------------|  x4
Db|--5-5--7-7-4-4--|
Ab|--5-5--7-7-4-4--|
Db|--5-5--7-7-4-4--|

Pre-Chorus
(Same as Intro II only less repeats)

All the night fear inside will come through
 Haunting right behind you
   Don't let it get that far
eb|----------------------------------|
Bb|------8-8-8-8-8-8-----------5-5-5-|
Gb|------7-7-7-7-7-7-----------6-6-6-|
Db|--5~5-5-5-5-5-5-5-7-7-7-4-4-4-4-4-|  x3
Ab|--5~5-------------7-7-7-4-4-------|
Db|--5~5-------------7-7-7-4-4-------|

eb|----------------------------------|
Bb|------8-8-8-8-8-8-----------------|
Gb|------7-7-7-7-7-7-----------------|
Db|--5~5-5-5-5-5-5-5-7-7-7-4-4-------|
Ab|--5~5-------------7-7-7-4-4-------|
Db|--5~5-------------7-7-7-4-4-------|

Chorus

eb|-----------------------------------------------------------|
Bb|-----------------------------------------------------------|
Gb|-----------------------------------------------------------|
Db|--5--5-5-5--5-5-9--9-9-9--9-9-4--4-4-4--4-4-7--7-7-4--4-4--|  x4
Ab|--5--5-5-5--5-5-9--9-9-9--9-9-4--4-4-4--4-4-7--7-7-4--4-4--|
Db|--5--5-5-5--5-5-9--9-9-9--9-9-4--4-4-4--4-4-7--7-7-4--4-4--|

Somehow, breathe a little deeper now, 'cause this is who we are
  When we look into their eyes
    Don't fly so high, so high little bird
      You'll get your wings clipped
        We'll pick it up, pick it up, now you've learned

Post-Chorus

eb|----------------------------------|
Bb|------8-8-8-8-8-8-----------5-5-5-|
Gb|------7-7-7-7-7-7-----------6-6-6-|
Db|--5~5-5-5-5-5-5-5-7-7-7-4-4-4-4-4-|  x3
Ab|--5~5-------------7-7-7-4-4-------|
Db|--5~5-------------7-7-7-4-4-------|

eb|----------------------------------|
Bb|------8-8-8-8-8-8-----------------|
Gb|------7-7-7-7-7-7-----------------|
Db|--5~5-5-5-5-5-5-5-7-7-7-4-4-------|
Ab|--5~5-------------7-7-7-4-4-------|
Db|--5~5-------------7-7-7-4-4-------|

Verse II

Searching the moment that defines you
  Your deepest dreams remind you
    Get out before you're gone
eb|----------------|
Bb|----------------|
Gb|----------------|  x4
Db|--5-5--7-7-4-4--|
Ab|--5-5--7-7-4-4--|
Db|--5-5--7-7-4-4--|

Pre-Chorus II

Now that all you hear is what surrounds you
  Push it out, get it out from around you
    Never stop and you will find it all
eb|----------------------------------|
Bb|------8-8-8-8-8-8-----------5-5-5-|
Gb|------7-7-7-7-7-7-----------6-6-6-|
Db|--5~5-5-5-5-5-5-5-7-7-7-4-4-4-4-4-|  x3
Ab|--5~5-------------7-7-7-4-4-------|
Db|--5~5-------------7-7-7-4-4-------|

eb|----------------------------------|
Bb|------8-8-8-8-8-8-----------------|
Gb|------7-7-7-7-7-7-----------------|
Db|--5~5-5-5-5-5-5-5-7-7-7-4-4-------|
Ab|--5~5-------------7-7-7-4-4-------|
Db|--5~5-------------7-7-7-4-4-------|

Chorus

eb|-----------------------------------------------------------|
Bb|-----------------------------------------------------------|
Gb|-----------------------------------------------------------|
Db|--5--5-5-5--5-5-9--9-9-9--9-9-4--4-4-4--4-4-7--7-7-4--4-4--|  x3
Ab|--5--5-5-5--5-5-9--9-9-9--9-9-4--4-4-4--4-4-7--7-7-4--4-4--|
Db|--5--5-5-5--5-5-9--9-9-9--9-9-4--4-4-4--4-4-7--7-7-4--4-4--|

eb|-----------------------------------------------------------|
Bb|-----------------------------------------------------------|
Gb|-----------------------------------------------------------|
Db|--5--5-5-5--5-5-9--9-9-9--9-9-4--4-4-4--4-4-2--2-2-7--7-7--|
Ab|--5--5-5-5--5-5-9--9-9-9--9-9-4--4-4-4--4-4-2--2-2-7--7-7--|
Db|--5--5-5-5--5-5-9--9-9-9--9-9-4--4-4-4--4-4-2--2-2-7--7-7--|

Somehow, breathe a little deeper now, 'cause this is who we are
  When we look into their eyes
    Don't fly so high, so high little bird
      You'll get your wings clipped
        We'll pick it up, pick it up, now you've learned

Bridge

We decided, We decided
  We decided this now
    So find out how we can survive
      How we can survive
eb|-----------------------------------------------------------|
Bb|-----------------------------------------------------------|  * Play
Gb|-----------------------------------------------------------|
Db|--5--5-5-5--5-5-0--0-0-0--0-0-5--5-5-5--5-5-0--0-0-0--0-0--|      this
Ab|--5--5-5-5--5-5-0--0-0-0--0-0-5--5-5-5--5-5-0--0-0-0--0-0--|
Db|--5--5-5-5--5-5-0--0-0-0--0-0-5--5-5-5--5-5-0--0-0-0--0-0--|   whole

eb|-----------------------------------------------------------|     block
Bb|----------------8--8-8-8--8-8------------------------------|
Gb|----------------7--7-7-7--7-7------------------------------|   twice*
Db|--5--5-5-5--5-5-5--5-5-5--5-5-0--0-0-0--0-0-2--2-2-2--2-2--|
Ab|--5--5-5-5--5-5-5--5-5-5--5-5-0--0-0-0--0-0-2--2-2-2--2-2--|
Db|--5--5-5-5--5-5-5--5-5-5--5-5-0--0-0-0--0-0-2--2-2-2--2-2--|


So find out how we can survive
  How we can survive
eb|-----------------------------------------------------------|
Bb|----------------8--8-8-8--8-8------------------------------|
Gb|----------------7--7-7-7--7-7------------------------------|
Db|--5--5-5-5--5-5-5--5-5-5--5-5-0--0-0-0--0-0-2--------------|
Ab|--5--5-5-5--5-5-5--5-5-5--5-5-0--0-0-0--0-0-2--------------|
Db|--5--5-5-5--5-5-5--5-5-5--5-5-0--0-0-0--0-0-2--------------|

Chorus

eb|--------------------------------------------------------------------|
Bb|--------------------------------------------------------------------|
Gb|--------------------------------------------------------------------|
Db|--5--5-5-5--5-5-9--9-9-9--9-9-4--4-4-4--4-4-7--7-7-x-x-x-x-x-x-x-x--|  x4
Ab|--5--5-5-5--5-5-9--9-9-9--9-9-4--4-4-4--4-4-7--7-7-x-x-x-x-x-x-x-x--|
Db|--5--5-5-5--5-5-9--9-9-9--9-9-4--4-4-4--4-4-7--7-7-x-x-x-x-x-x-x-x--|

Somehow, breathe a little deeper now, 'cause this is who we are
  When we look into their eyes
    Don't fly so high, so high little bird
      You'll get your wings clipped
        We'll pick it up, pick it up, now you've learned

Post-Chorus

eb|----------------------------------|
Bb|------8-8-8-8-8-8-----------5-5-5-|
Gb|------7-7-7-7-7-7-----------6-6-6-|
Db|--5~5-5-5-5-5-5-5-7-7-7-4-4-4-4-4-|  x3
Ab|--5~5-------------7-7-7-4-4-------|
Db|--5~5-------------7-7-7-4-4-------|

eb|----------------------------------|
Bb|------8-8-8-8-8-8-----------------|
Gb|------7-7-7-7-7-7-----------------|
Db|--5~5-5-5-5-5-5-5-7-7-7-4-4-------|
Ab|--5~5-------------7-7-7-4-4-------|
Db|--5~5-------------7-7-7-4-4-------|
Добавлено: 25.03.2012
Другие материалы по этой песне:
  • Аккорды и текст

Страница создана 25.03.2012
http://primanota.ru/cartel/this-is-who-we-are-chords.htm
Привет, Гость.
Предлагаем пройти революционный курс по гитаре.
Подарок от PrimaNota.Ru, забирай!