PrimaNota.ru - самый крупный в мире бесплатный архив песенных текстов, аккордов, табулатур и нот


Cartel - Settle Down - текст песни, таба, видео

Регистрация Запомнить меня
Войти через:  Facebook Google Twitter Vk Yandex Mail.ru

Cartel - Settle Down - текст песни, таба, видео

Печатать
Просмотров: 171
-----------------------------------------------------------------
Settle Down - Cartel
-----------------------------------------------------------------
Tabbed by: Bair
Email: bair_morritt@hotmail.com

Tuning: Standard

**I took a stab at this since no ones done it yet in standard or drop D tuning. I
guess we gotta start somewhere.**

Intro:
"It was just a few years in the making now.
The two were locked in a heated dispute"

Verse:   PART 1                  PART 2
e|---------------3-----|------------------------|
B|-----------------4---|------------------------|
G|--5----------------5-|-5--------3---3-5-------|
D|--5-(Let ring)-------|-5--66--3-3-3-3-5-(X6)--|
A|--3------------------|-3--66--3-1-3-1-3-------|
E|---------------------|----44--1---1-----------|
"Cause he was gone when she needed him more.
Then she could really ever let on to.
They were the poster perfect high school sweethearts,
But moving out can't erase the time.
The two had spent on working it out and
Everybody knew that they were out of their minds."

Chorus:
e|------------------------------------------|
B|------------------------------------------|
G|--55-----------------------33-3-----------|
D|--55--66-(X2)--33--66--33--33-3-----------| (X2)
A|--33--66-------33--66--33--11-1-----------|
E|------44-------11--44--11-----------------|
"Oh, you know you really need to settle down,
Let it go.You know you really need to settle down,
You really need to let it go."

-Then Verse PART 2

Post Chorus:
e|----------------------|
B|----------------------|
G|--5-------------5-55--|
D|--5-(Let Ring)--5-55--|
A|--3-------------3-33--|
E|----------------------|
"And all the time that she was givin' up slowly"

-Then Chorus (X2)

Interlude:
e|------------------------------------------------|
B|------------------------------------------------|
G|--66666666------------------66666666--99999999--|
D|--66666666--6666--3333-(X5)-66666666--99999999--|
A|--44444444--6666--3333------44444444--77777777--|
E|------------4444--1111--------------------------|
"Just say you left me like you could."

-Then Chorus (X2)
                             
----------------------------------------------------------------------------
VERSE 2 Lyrics:
Consider this, he was moving on while
She was busy trying to pass the time
Between the previous and next nervous breakdown.
The girl had given up the love of her life.
And all the time that she was givin' up slowly
he didn't notice when she ran away
and when it came to finally letting him on
well this is every single word she'd say...

Interlude Lyrics:
Just say you left me like you could.
(Although you said you never would.)
Just say it's done, and be gone.
Just say you left me like you could.
(Although you said you never would.)
Just say it's done, and be gone.
Just say it's done, and be gone.
Добавлено: 12.04.2012
Другие материалы по этой песне:
  • Аккорды и текст

Страница создана 12.04.2012
http://primanota.ru/cartel/settle-down-chords.htm
Привет, Гость.
Предлагаем пройти революционный курс по гитаре.
Подарок от PrimaNota.Ru, забирай!