PrimaNota.ru - самый крупный в мире бесплатный архив песенных текстов, аккордов, табулатур и нот


Cartel - Retrograde - таба, видео

Регистрация Запомнить меня
Войти через:  Facebook Google Twitter Vk Yandex Mail.ru

Cartel - Retrograde - таба, видео

Печатать
Просмотров: 156
-----------------------------------------------------------------------
                             Retrograde - Cartel
-----------------------------------------------------------------------
Tabbed by: zach
Email:zpenston@gmail.com
The recording I had was in drop Db, but it sounded like the album version was not 
dropped the half step. Take your pick, it should play the same.

Tuning: Db Ab Db Gb Bb eb

Intro: *palm mute
eb|---------------------------------------------------------------|
Bb|---------------------------------------------------------------|
Gb|----7-7-7-7----4-4-4-4-----------------------------------------|
Db|----7-7-7-7----4-4-4-4-----------------------------------------|x2
Ab|----5-5-5-5----2-2-2-2-----------------------------------------|
Db|----x-x-x-x----x-x-x-x-----------------------------------------|

Verse: *palm mute Im out of faith
eb|---------------------------------------------------------------|
Bb|---------------------------------------------------------------|
Gb|-7-7-7-7---4-4-4-4-----7-7-7-7---4-4-4-4-----7-7-7-7---4-4-4-4-|
Db|-7-7-7-7---4-4-4-4-----7-7-7-7---4-4-4-4-----7-7-7-7---4-4-4-4-|
Ab|-5-5-5-5---2-2-2-2-----5-5-5-5---2-2-2-2-----5-5-5-5---2-2-2-2-|
Db|-x-x-x-x---x-x-x-x-----x-x-x-x---x-x-x-x-----x-x-x-x---x-x-x-x-|

eb|---------------------------------------------------------------|
Bb|---------------------------------------------------------------|
Gb|-7-7-7-7---4-4-4-4-----7-7-7-7---7-7-7-7-----7-7-7-7---7-7-7-7-|
Db|-7-7-7-7---4-4-4-4-----5-5-5-5---0-0-0-0-----5-5-5-5---0-0-0-0-|
Ab|-5-5-5-5---2-2-2-2-----5-5-5-5---0-0-0-0-----5-5-5-5---0-0-0-0-|
Db|-x-x-x-x---x-x-x-x-----5-5-5-5---0-0-0-0-----5-5-5-5---0-0-0-0-|

eb|---------------------------------------------------------------|
Bb|---------------------------------------------------------------|
Gb|-7-7-7-7---4-4-4-4-----7-7-7-7---4-4-4-4-----7-7-7-7---7-7-7-7-|
Db|-7-7-7-7---4-4-4-4-----7-7-7-7---4-4-4-4-----5-5-5-5---0-0-0-0-|
Ab|-5-5-5-5---2-2-2-2-----5-5-5-5---2-2-2-2-----5-5-5-5---0-0-0-0-|
Db|-x-x-x-x---x-x-x-x-----x-x-x-x---x-x-x-x-----5-5-5-5---0-0-0-0-|

eb|---------------------------------------------------------------|
Bb|---------------------------------------------------------------|
Gb|-7-7-7-7---7-7-7-7----7-7-7-7---4-4-4-4-----7-7-7-7---7-7-7-7--|
Db|-5-5-5-5---0-0-0-0----7-7-7-7---4-4-4-4-----5-5-5-5---0-0-0-0--|
Ab|-5-5-5-5---0-0-0-0----5-5-5-5---2-2-2-2-----5-5-5-5---0-0-0-0--|
Db|-5-5-5-5---0-0-0-0----x-x-x-x---x-x-x-x-----5-5-5-5---0-0-0-0--|










Chorus: *open strum And Im under a rain
eb|---------------------------------------------------------------|
Bb|---------------------------------------------------------------|
Gb|-7-7-7-7-7-7-7-7-7-7-7-7-7-7-7-7---4-4-4-4-4-4-4-4-------------|
Db|-7-7-7-7-7-7-7-7-7-7-7-7-7-7-7-7---4-4-4-4-4-4-4-4-------------|
Ab|-5-5-5-5-5-5-5-5-5-5-5-5-5-5-5-5---2-2-2-2-2-2-2-2-------------|
Db|-x-x-x-x-x-x-x-x-x-x-x-x-x-x-x-x---x-x-x-x-x-x-x-x-------------|

eb|--------------------|
Bb|--------------------|
Gb|-7-7-7-7-7-7-7-7----|
Db|-5-5-5-5-5-5-5-5----|x3
Ab|-5-5-5-5-5-5-5-5----|
Db|-5-5-5-5-5-5-5-5----|


                  An undecided heart
eb|---------------------------------------------------------------|
Bb|---------------------------------------------------------------|
Gb|-7-7-7-7-7-7-7-7-7-7-7-7-7-7-7-7---9-9-9-9-9-9-9-9-------------|
Db|-0-0-0-0-0-0-0-0-0-0-0-0-0-0-0-0---7-7-7-7-7-7-7-7-------------|
Ab|-0-0-0-0-0-0-0-0-0-0-0-0-0-0-0-0---7-7-7-7-7-7-7-7-------------|
Db|-0-0-0-0-0-0-0-0-0-0-0-0-0-0-0-0---7-7-7-7-7-7-7-7-------------|

eb|--------------------|
Bb|--------------------|
Gb|-7-7-7-7-7-7-7-7----|
Db|-5-5-5-5-5-5-5-5----|x1
Ab|-5-5-5-5-5-5-5-5----|
Db|-5-5-5-5-5-5-5-5----|

(Intro line)
Verse: Im out of place
Chorus: Im under a rain

Bridge: Instrumental
eb|---------------------------------------------------------------|
Bb|---------------------------------------------------------------|
Gb|-7-7-7---11-11-11---9-9-9-9-9-9-9-9----------------------------|
Db|-5-5-5---9--9--9----7-7-7-7-7-7-7-7----------------------------|
Ab|-5-5-5---9--9--9----7-7-7-7-7-7-7-7----------------------------|
Db|-5-5-5---9--9--9----7-7-7-7-7-7-7-7----------------------------|

eb|---------------------------------------------------------------|
Bb|---------------------------------------------------------------|
Gb|-7-7-7---9-9-9---7-7-7-7-7-7-7-7-------------------------------|
Db|-5-5-5---7-7-7---0-0-0-0-0-0-0-0-------------------------------|x2
Ab|-5-5-5---7-7-7---0-0-0-0-0-0-0-0-------------------------------|
Db|-5-5-5---7-7-7---0-0-0-0-0-0-0-0-------------------------------|

 round and round, this cycle wont slow down
eb|---------------------------------------------------------------|
Bb|---------------------------------------------------------------|
Gb|-7-7-7---9-9-9---7-7-7-7-7-7-7-7-------------------------------|
Db|-5-5-5---7-7-7---0-0-0-0-0-0-0-0-------------------------------|x3
Ab|-5-5-5---7-7-7---0-0-0-0-0-0-0-0-------------------------------|
Db|-5-5-5---7-7-7---0-0-0-0-0-0-0-0-------------------------------|

  life Ive found.
eb|---------------------------------------------------------------|
Bb|---------------------------------------------------------------|
Gb|-7---9---7-----------------------------------------------------|
Db|-5---7---0-----------------------------------------------------|x1
Ab|-5---7---0-----------------------------------------------------|
Db|-5---7---0-----------------------------------------------------|

Interlude: What has been ever comes round again
eb|----------------------|
Bb|----------------------|
Gb|-7-7-7-7---4-4-4-4----|
Db|-7-7-7-7---4-4-4-4----|  x4
Ab|-5-5-5-5---2-2-2-2----|
Db|-x-x-x-x---x-x-x-x----|

Chorus: x2

Fin
Добавлено: 01.06.2012
Другие материалы по этой песне:
  • Аккорды и текст

Страница создана 01.06.2012
http://primanota.ru/cartel/retrograde-chords.htm
Привет, Гость.
Предлагаем пройти революционный курс по гитаре.
Подарок от PrimaNota.Ru, забирай!