PrimaNota.ru - самый крупный в мире бесплатный архив песенных текстов, аккордов, табулатур и нот


Cartel - Q - текст песни, таба, видео

Регистрация Запомнить меня
Войти через:  Facebook Google Twitter Vk Yandex Mail.ru

Cartel - Q - текст песни, таба, видео

Печатать
Просмотров: 224
Уроки эстрадного вокала в Санкт-Петербурге
Song: Q
Band: Cartel
Album: Chroma (2005)

Tabbed by: Fred Hatfull
Email: lurkingfridge79 (at) gmail (dot) com

Tuning: Drop Db (DbAbDbGbBbeb)

Notes: This is a neatly composed but very simple run up
to the last song on the album. This song is a lot of fun to play
and pretty easy to pick up. There may be some errors on the rhythm
so don't rely on it too heavily, although I think I did get pretty
close. Just listen to the song. It will all fall together! I tabbed
out the main parts the first time they're run through, then just
made references to them to complete the order of the song. Lyrics
are included for your enjoyment!

Amp Settings: Plenty of overdrive - Don't go overboard but you should
have more than enough to get that juicy palm muted sort of sound.


(Verse)

    Eb5   Ab5
--|-----------------|-----------------|
--|-----------------|-----------------|
--|-9-9-9-----------|-----------------|
7-|-9-9-9-7-7-7-7-7-|-7-7-7-7-7-7-7-7-|
7-|-7-7-7-7-7-7-7-7-|-7-7-7-7-7-7-7-7-|
7-|-------7-7-7-7-7-|-7-7-7-7-7-7-7-7-|
(P.M.)
  Reaching out   Can you hear me said I'm

-----------------|-----------------|
-----------------|-----------------|
-9-9-9-----------|-----------------|
-9-9-9-7-7-7-7-7-|-7-7-7-7-7-7-7-7-|
-7-7-7-7-7-7-7-7-|-7-7-7-7-7-7-7-7-|
-------7-7-7-7-7-|-7-7-7-7-7-7-7-7-|
(P.M.)
Reaching out, but no one's near me and

-----------------|-----------------|
-----------------|-----------------|
-9-9-9-----------|-----------------|
-9-9-9-7-7-7-7-7-|-7-7-7-7-7-7-7-7-|
-7-7-7-7-7-7-7-7-|-7-7-7-7-7-7-7-7-|
-------7-7-7-7-7-|-7-7-7-7-7-7-7-7-|
(P.M.)
Through all this I've been reaching out

-----------------|-----------------|
-----------------|-----------------|
-9-9-9-----------|-----------------|
-9-9-9-7-7-7-7-7-|-7-7-7-7-7-7-7-7-|
-7-7-7-7-7-7-7-7-|-7-7-7-7-7-7-7-7-|
-------7-7-7-7-7-|-7-7-7-7-7-7-7-7-|
(P.M.)         (Gradually Release PM)
Blindly

(Prechorus)

-----------------|-----------------|
-----------------|-----------------|
-6---6-4-----4---|-----------------|
-6---6-4-----4---|---6-6-6-6-7-7-7-|
-4---4-2-----2---|---6-6-6-6-7-7-7-|
-----------------|---6-6-6-6-7-7-7-|

So it comes down and I don't know

-----------------|-----------------|
-----------------|-----------------|
-6---6-4-----9---|-----------------|
-6---6-4-----9---|-----------------|
-4---4-2-----7---|-----------------|
-----------------|-----------------|
                (Let Ring~~~~~~)
Anything         It always comes

-----------------|-----------------|
-----------------|-----------------|
-6---6-4-----4---|-----------------|
-6---6-4-----4---|---6-6-6-6-7-7-7-|
-4---4-2-----2---|---6-6-6-6-7-7-7-|
-----------------|---6-6-6-6-7-7-7-|

Around  But fighting always seems just like

-----------------|-----------------|
-----------------|-----------------|
-----------------|-----------------|
-----------------|-9-9-9-9-9-9-9-9-|
-----------------|-9-9-9-9-9-9-9-9-|
-----------------|-9-9-9-9-9-9-9-9-|

                 That I'll never know


(Chorus)

-----------------|-----------------|
-----------------|-----------------|
-9-9-9-----------|-----------------|
-9-9-9-7-7---7---|-7---7---7---7---|
-7-7-7-7-7---7---|-7---7---7---7---|
-------7-7---7---|-7---7---7---7---|

And you never will/Still I'll never know
And you won't until/Someone stands up
Then you'll get some answers


Solo (Rhythm guitar plays verse)
-------------------------------------------------|
-------------------------------------------------|
-----4---6-------8br-6-6h8p6-----9---------------|
-4h6---7---------------------7h9---------7p6-----|
---------------------------------------------7---|
-------------------------------------------------|


(Verse)
Well here goes nothing yeah I'm standing up
And I'll get nothing if it's not enough
But they won't say what they're holding back from us

(Prechorus)
And so it comes down and I don't know anything
It always comes around
And fighting always seems just like

(Chorus)
That I'll never know
And you never will
Still I'll never know
And you won't until someone stands up
Then you'll get some answers
That I'll never know
And you never will
Still I'll never know
And you won't until someone stands up
Then you'll get some answers

(Verse)
I'll tell you this is something that you'll never hear
They knew it then and they've been holding back for years
And if you're not getting answers ask better questions...

(Chorus)
That I'll never know
And you never will
Still I'll never know
And you won't until someone stands up
Then you'll get some answers
That I'll never know
And you never will
Still I'll never know
And you won't until someone stands up
Then you'll get some answers

Ending Riff:
-----------------|-----------------|
-----------------|-----------------|
-8h9-------------|-----------------|
-----9h11--------|-----------------|
---------9h11----|--------11p9-7---|
-----------------|-----------------|

Fade to A
I'll try to put a tab up for that song soon, but this should keep you going for now:

---7---0---7---0-|
-5---5---5---5---|
-----------------|
-----------------|
-----------------|
-----------------|

Enjoy! Feedback is appreciated.
Добавлено: 27.02.2012
Другие материалы по этой песне:
  • Аккорды и текст

Страница создана 27.02.2012
http://primanota.ru/cartel/q-chords.htm
Привет, Гость.
Предлагаем пройти революционный курс по гитаре.
Подарок от PrimaNota.Ru, забирай!