PrimaNota.ru - самый крупный в мире бесплатный архив песенных текстов, аккордов, табулатур и нот


Cartel - Mistrels Prayer Live - таба, видео

Регистрация Запомнить меня
Войти через:  Facebook Google Twitter Vk Yandex Mail.ru

Cartel - Mistrels Prayer Live - таба, видео

Печатать
Просмотров: 125
Cartel- Minstrel's prayer
tune half step down...

alrightyy, everybody wanted this tabbed out... so uh... here ya go...
this is the youtube version... have fun... here's the link to it...
http://www.youtube.com/watch?v=M_uB6XsbhIQ&search=minstrels%20prayer

Just hold her hands, and drop the knee, your facing love, you're embracing melody...
i love that part.. =]


intro:
-2p0-------------------0---------------------|
-----3----3--------------3-------------------|
-------0----0------0-------0-------0---0-----|
---------4----4-4----4---------4---------4---|
------------------2----------2---2---2-----2-|
---------------------------------------------|
                                    *right here... it's kinda hard to hear
                                     cause he's loud as hell... so it might
                                     be a little off... sorryyy =/

verse: there are really alot of variations of this... i'm not gonna type them all out,
sounds good as long as you stick with the chord...
---0--------------------------|
-3---------------------3------|
-----0---------------0--------|
-------4-----------------4----|
---------------------------0--|
------------------------------|

alternate version: (i don't think he plays this but it sounds better...)
-2p0--------------------------|
-----3---------------3--------|
-------0---------------0------|
-------------------------4----|
---------------------------2--|
------------------------------|

then just end the verse by strumming this...
-0---|
-3---|
-0---|
-4---|
-----|
-3---|
i find it easiest to use my thumb on the low E string...

chorus:
you're big boys and girls, you can figure out the strumming... =P
-0-------------0-------------|
-3------0------3------7------|
-0------2------0------0------|
-4------0------4------0------|
--------2--------------------|
-3-------------3------7------|

post chorus:
---0----------2p0-------0-----0---0-----------0----------0-----|
-3---3----3-------3-------3-----3---3-----3-----3---3------3---|
-0----------0-------0-------0-------------------------0--------|
-------4--------------4----------------------------------------|
--------------------------------------2-----2-----2-----2----2-|
---------------------------------------------------------------|
 *upstroke here

---0-----------2p0-------0-----0---0------------------------------|
-3---3-----3-------3-------3-----3---3----3----3------------------|
-------------0-------0-------0-------------------0-------------0--|
-------4---------------4---------------------------4---------4-4--|
---------------------------------------2----2--------2-2-2-2-2-2--|
------------------------------------------------------------------|
                                                     PM (slowly fade out)

interlude: play around with these chords...
----------------|
-3----3----0----|
-0----2----2----|
-4----4----0----|
-----------2----|
-3----2---------|

outro thang:
---------------------------------------5p0------------|
---3----------3--------3----------7---------7-----7---|
-----4---2----0----------4------7-------------7-------|
-----------4-(4)------------------------------------0-|
------------------------------------------------------|
-3-----2-------------3------3/7-----------------7-----|

---------------------------------------------|
---3----------3-----------3/---5-------7-----|
-----4---2----0---------4--/-6---------7-----|
-----------4-(4)-----------------------------|
---------------------------------------------|
-3-----2----------2/3-3----/-----5/7-7-------|

then go end with the chorus i guess...

then the video kinda just stops... lol... idk... i'm pretty sure it's all right... there
be some minor mistakes... you can fix them.. =P ..have fun... =]
Добавлено: 18.06.2012
Другие материалы по этой песне:
  • Аккорды и текст

Страница создана 18.06.2012
http://primanota.ru/cartel/mistrels-prayer-live-chords.htm
Привет, Гость.
Предлагаем пройти революционный курс по гитаре.
Подарок от PrimaNota.Ru, забирай!