PrimaNota.ru - самый крупный в мире бесплатный архив песенных текстов, аккордов, табулатур и нот


Cartel - Get Away - текст песни, таба, видео

Регистрация Запомнить меня
Войти через:  Facebook Google Twitter Vk Yandex Mail.ru

Cartel - Get Away - текст песни, таба, видео

Печатать
Просмотров: 133
Wat's up people? this is my 1st tab so i hope it's all good. just heard this song on 
and i thought i could find the tab but i couldn't so i decided to make it.

Tabbed by:Jeffery89


Tuning:Half Step Down

intro
eb|--0-0-000---0-0-000---0-0-000---0-0-000---------------------------------|
Bb|--3-3-333---3-3-333---3-3-333---3-3-333---------------------------------|
Gb|--4-4-444---2-2-222---0-0-000---0-0-000---------------------------------|
Db|--4-4-444---2-2-222---2-2-222---2-2-222---------------------------------|
Ab|--2-2-222---0-0-000---2-2-222---2-2-222---------------------------------|
Eb|--x-x-xxx---x-x-xxx---0-0-000---0-0-000---x2----------------------------|

Verse
eb|---------------------------------------------------------------------------------------------|
Bb|---------------------------------------------------------------------------------------------|
Gb|--44444444--22222222--0000000000000000----44444444--22222222--0000000000000000---------------|
Db|--44444444--22222222--2222222222222222----44444444--22222222--2222222222222222---------------|
Ab|--22222222--00000000--2222222222222222----22222222--00000000--2222222222222222---x2----------|
Eb|---------------------------------------------------------------------------------------------|

Pre-Chorus
eb|--0-0-0-0-0-0-0-0-0-0-0-0-0-0-0-0----------0--0--3--3------------------|
Bb|--3-3-3-3-3-3-3-3-3-3-3-3-3-3-3-3----------5--5--3--3------------------|
Gb|--4-4-4-4-2-2-2-2-0-0-0-0-0-0-0-0----------4--4--4--3------------------|
Db|--4-4-4-4-2-2-2-2-2-2-2-2-2-2-2-2----------5--5--5--5------------------|
Ab|--2-2-2-2-0-0-0-0-2-2-2-2-2-2-2-2----------4--5--5--5------------------|
Eb|--x-x-x-x-x-x-x-x-0-0-0-0-0-0-0-0---x2-----x--x--3--3------------------|

Chorus
eb|---00000000-00000000-00000000-33333333--------------------------|
Bb|---33333333-33333333-33333333-33333333--------------------------|
Gb|---22222222-22222222-00000000-44443333--------------------------|
Db|---00000000-22222222-22222222-55555555--------------------------|
Ab|------------00000000-33333333-55555555--------------------------|
Eb|------------------------------33333333--x2----------------------|

intro again
eb|--0-0-000---0-0-000---0-0-000---0-0-000---------------------------------|
Bb|--3-3-333---3-3-333---3-3-333---3-3-333---------------------------------|
Gb|--4-4-444---2-2-222---0-0-000---0-0-000---------------------------------|
Db|--4-4-444---2-2-222---2-2-222---2-2-222---------------------------------|
Ab|--2-2-222---0-0-000---2-2-222---2-2-222---------------------------------|
Eb|--x-x-xxx---x-x-xxx---0-0-000---0-0-000---x2----------------------------|

Verse

Pre-Chorus

Chorus

Just keep playing the Chorus for the solo bridge

Chorus
eb|----------------------------------00-00000000-33333333--------------------------|
Bb|---3333333333333333-3333333333333333-33333333-33333333--------------------------|
Gb|---2222222222222222-2222222222222222-00000000-44443333--------------------------|
Db|---0000000000000000-2222222222222222-22222222-55555555--------------------------|
Ab|----------------------------------00-33333333-55555555--------------------------|
Eb|----------------------------------00----------33333333--------------------------|
Get Get Get...

eb|---00000000-00000000-00000000-33333333--------------------------|
Bb|---33333333-33333333-33333333-33333333--------------------------|
Gb|---22222222-22222222-00000000-44443333--------------------------|
Db|---00000000-22222222-22222222-55555555--------------------------|
Ab|------------00000000-33333333-55555555--------------------------|
Eb|------------------------------33333333--------------------------|
      Baby Baby Baby....

eb|---00000000-00000000-00000000-33333333-----------3-3-3-3-2----------|
Bb|---33333333-33333333-33333333-33333333-----------3-3-3-3-3----------|
Gb|---22222222-22222222-00000000-44443333-----------4-4-3-3-2----------|
Db|---00000000-22222222-22222222-55555555-----------5-5-5-5-0----------|
Ab|------------00000000-33333333-55555555-----------5-5-5-5------------|
Eb|------------------------------33333333--x2-------3-3-3-3------------|
              OHHHHHHHHHH   OHHHHHHHHHHH

Let the last note ring

Lyrics
Stop and turn,
Look away right now
You never will find a safer thing,
if you turn around

[Pre-Chorus]
If anybody wants to see you now,
they'll have to get through me
Cause everybody burns for something special,
somehow they might see and Oh.

[Chorus]
Get, Get, Get away from me.
You don't know what I'm capable of.
Just you wait and see.
And Baby, Baby, Baby, I'm ashamed.
Well I can do some terrible things
So nows your time to leave.

Twist and turn.
Please don't let me in it's not a lie.
We think that it's understood
If you should leave me now.

[Pre-Chorus]
If anybody wants to see you now,
they'll have to get through me
Cause everybody burns for something special,
somehow they might see and Oh.

[Chorus]
Get, Get, Get away from me.
You don't know what I'm capable of.
Just you wait and see.
And Baby, Baby, Baby, I'm ashamed.
Well I can do some terrible things
So nows your time to leave.

[Chorus]
Get, Get, Get away from me.
You don't know what I'm capable of.
Just you wait and see.
And Baby, Baby, Baby, I'm ashamed.
Well I can do some terrible things
So nows your time to leave.

Oh. Ohhhhhh Whoa Ohhhhh. Ohhhhhh Whoa Ohhhhh

Ooooh.
Добавлено: 02.03.2012
Другие материалы по этой песне:
  • Аккорды и текст

Страница создана 02.03.2012
http://primanota.ru/cartel/get-away-chords.htm
Привет, Гость.
Предлагаем пройти революционный курс по гитаре.
Подарок от PrimaNota.Ru, забирай!