PrimaNota.ru - самый крупный в мире бесплатный архив песенных текстов, аккордов, табулатур и нот


Cartel - Best - текст песни, таба, бас-таба, видео

Регистрация Запомнить меня
Войти через:  Facebook Google Twitter Vk Yandex Mail.ru

Cartel - Best - текст песни, таба, бас-таба, видео

Печатать
Просмотров: 256
**Capo 1st Fret**
All fret marks are from capo.

its a continuous motion, just listen to the song and you will get it.

Intro:
e|-------------------------------------------------|
b|----0-----0-----0-----0-----0-----0-----0----0-0-|
g|---0--0--0--0--0--0--0--0--0--0--0--0--0--0------|
d|-------------------------------------------------|
a|--7----76----65----54----43----33----33----35-6--|
E|-------------------------------------------------|

Verse:
e|--------------------------------------------------------------------------|
b|----0-----0-----0-----0-----0-----0-----0-----0-----0-----0-----0----0-0--|
g|---0--0--0--0--0--0--0--0--0--0--0--0--0--0--0--0--0--0--0--0--0--0-------|
d|--------------------------------------------------------------------------|
a|--7----76----65----54----43----32----20----02----23----32----20----05-6---|
E|--------------------------------------------------------------------------|

e|-------------------------------------------------|
b|----0-----0-----0-----0-----0-----0-----0----0-0-|
g|---0--0--0--0--0--0--0--0--0--0--0--0--0--0------|
d|-------------------------------------------------|
a|--7----76----65----54----43----32----20----05-6--|
E|-------------------------------------------------|

e|---------------------------------------------------------------------------|
b|----0-----0-----0-----0-----0-----0-----0-----0-----0-----0-----0-----0----|
g|---0--0--0--0--0--0--0--0--0--0--0--0--0--0--0--0--0--0--0--0--0--0--0--0--|
d|---------------------------------------------------------------------------|
a|--7----76----65----54----43----32----20----02----23----32----20----02----2-|
E|---------------------------------------------------------------------------|

e|-------------------------------------------------------------------------|
b|----0-----0-----0----0-0--0-----0-----0-----0-----0-----0-----0-----0----|
g|---0--0--0--0--0--0------0--0--0--0--0--0--0--0--0--0--0--0--0--0--0--0--|
d|-------------------------------------------------------------------------|
a|--3----32----20----05-6-7----76----65----54----43----32----20----02----2-|
E|-------------------------------------------------------------------------|


e|-------------------------------------------------------------------------|
b|----0-----0-----0-----0-----0-----0-----0-----0-----0-----0-----0--------|
g|---0--0--0--0--0--0--0--0--0--0--0--0--0--0--0--0--0--0--0--0--0--0------|
d|-------------------------------------------------------------------------|
a|--3----32----20----02----23----32----20----02----23----32----20----0-----|
E|-------------------------------------------------------------------------|

e|----------|
b|---0-0--0-|
g|-------0--|
d|----------|
a|--5-6-7---|
E|----------|

btw, i added my own ending, leave me a comment if you figure out how the ending is and 
fix it.
Добавлено: 25.05.2012
Другие материалы по этой песне:

Страница создана 06.03.2012
http://primanota.ru/cartel/best-chords.htm
Привет, Гость.
Предлагаем пройти революционный курс по гитаре.
Подарок от PrimaNota.Ru, забирай!