PrimaNota.ru - самый крупный в мире бесплатный архив песенных текстов, аккордов, табулатур и нот


Cars - Looking For Love - текст песни, бас-таба, видео

Регистрация Запомнить меня
Войти через:  Facebook Google Twitter Vk Yandex Mail.ru

Cars - Looking For Love - текст песни, бас-таба, видео

Печатать
Просмотров: 38
Авторы музыки: Ric Ocasek
Авторы текста: Ric Ocasek
Intro
G|---------------------------------------------|
D|--------------------------------------33-2-3-|
A|-3--3--3-----------3--3--3----------3--------|
E|----------1--1--1-----------1--1--1----------|

Verse 1
       (x3)
G|------------------|---------------------------|
D|------------------|--------------------33-2-3-|
A|-3--3--3----------|-3--3--3----------3--------|
E|----------1--1--1-|----------1--1--1----------|

Pre Chorus
G|---------------------------------------------|
D|---5---5----3----3-----5---5----3------------|
A|-------------------------------------3/5\3-2-|
E|-3---3----1----1-----3---3----1----1---------|

Chorus
            (x3)
G|------------------------------------|------------------------------------|
D|-----------------------------3\2/3--|-----------------------------33\2/3-|
A|-3--3--3----3---3----------3--------|-3--3--3----3---3----------3--------|
E|----------3---3----1--1--1----------|----------3---3----1--1--1----------|

Pre Verse
G|--------------------------|
D|---5---5---5------5-------|
A|--------------------7-5-3-|
E|-3---33--33---333---------|

Verse 2 (x4)
G|----------------------------------------|
D|---------------------------------33-2-3-|
A|-3--3--3----33----3------------3--------|
E|----------3----33-----1--1--1-----------|

Repeat Pre Chorus and Chorus 

Solo
(1s not 11s)
       (x3)
G|---------------------|----------------------------|
D|----5----5-----3---3-|---5-----5-----3------------|
A|---------------------|--------------------3/5\3-2-|
E|-33---33----11---11--|-33---33----11----1---------|

Final Chorus (fades out)
G|-------------------------------------|
D|------------------------------33\2/3-|
A|--3--3--3----3---3----------3--------|
E|-----------3---3----1--1--1----------|
Добавлено: 11.05.2016
Другие материалы по этой песне:
  • Аккорды и текст

Страница создана 06.07.2012
http://primanota.ru/cars/looking-for-love-chords.htm
Привет, Гость.
Предлагаем пройти революционный курс по гитаре.
Подарок от PrimaNota.Ru, забирай!