PrimaNota.ru - самый крупный в мире бесплатный архив песенных текстов, аккордов, табулатур и нот


Carrie Hope Fletcher - The Silly Song - таба, видео

Регистрация Запомнить меня
Войти через:  Facebook Google Twitter Vk Yandex Mail.ru

Carrie Hope Fletcher - The Silly Song - таба, видео

Печатать
Просмотров: 57
-------------------------------------------------------------------------------
                             The Silly Song - Carrie Hope Fletcher
-------------------------------------------------------------------------------
Tabbed by: Bannannah

Tuning: Standard
Capo: 3, 4 or 5 depending on version
Based on YouTube cover by ImpossibleAlien

Verse
    G                           D                          Am                         D
e|------1----1------1-----1--------2------2-----2-----2--------0-----0----0------0----------2-----2--------2--|
B|------0----0------0-----0--------3------3-----3-----3--------1-----1----1------1----------3-----3-----------|
G|------0----0------0-----0--------2------2-----2-----2--------2-----2----2------2----------2-----2--------2--|
D|--------------------------------------0-----------0--------------2----------2-------------------------0-----|
A|---------2-----------2--------0-------------0--------------0----------0----------------0-----0------0-------|
E|---3------------3-------------------------------------------------------------------------------------------|
  The birds and the bees...      making me feel like...     holding my breath...         world


    G                           D                          Am                         D
e|------1----1------1-----1--------2------2-----2-----2--------0-----0----0------0----------2-----2-----------|
B|------0----0------0-----0--------3------3-----3-----3--------1-----1----1------1----------3-----3-----------|
G|------0----0------0-----0--------2------2-----2-----2--------2-----2----2------2----------2-----2-----------|
D|--------------------------------------0-----------0--------------2----------2-------------------------0-----|
A|---------2-----------2--------0-------------0--------------0----------0----------------0-----0------0-------|
E|---3------------3-------------------------------------------------------------------------------------------|
   and the ocean blue...       hoping that you're...        building a castle...       girl

Chorus
  Am                          D                    G            E          Am
e|-----0-----0-----0-----0------2----2----2----2--------1----1------0---0-----0-----0-------|
B|-----1-----1-----1-----1------3----3----3----3--------0----0------0---0-----1-----1-------|
G|-----2-----2-----2-----2------2----2----2----2--------0----0------1---1-----2-----2-------|
D|--------2------------2-----------0---------0-----------------------------------2----------|
A|--0-----------0-------------0---------0------------------2----------2------0--------------|
E|----------------------------------------------------3----------0--------------------------|
   because I can see          now I may be          falling   so swiftly    for you

 Am          D               G
e|--0------0-------2------2-----1----1-----------1--|
B|--1------1-------3------3-----0----0--------------|
G|--2------2-------2------2-----0----0-----------0--|
D|------2--------------0----------------------------|
A|--0------------0-----------------2---------2------|
E|----------------------------3-----------3---------|
   So if...    will you be...   too
Добавлено: 08.11.2015
Вам также может быть интересно:
Другие материалы по этой песне:
  • Аккорды и текст

Страница создана 08.11.2015
http://primanota.ru/carrie-hope-fletcher/silly-song-chords.htm
Привет, Гость.
Предлагаем пройти революционный курс по гитаре.
Подарок от PrimaNota.Ru, забирай!