PrimaNota.ru - самый крупный в мире бесплатный архив песенных текстов, аккордов, табулатур и нот


Carpenters - Jambalaya - текст песни, таба, бас-таба, видео

Регистрация Запомнить меня
Войти через:  Facebook Google Twitter Vk Yandex Mail.ru

Carpenters - Jambalaya - текст песни, таба, бас-таба, видео

Печатать
Просмотров: 156
Авторы музыки: Hank Williams
Авторы текста: Fernand Bonifay
JAMBALAYA (ON THE BAYOU)

As recorded by The Carpenters
(From the 1973 Album NOW & THEN)

Words and Music by Hank Williams
Arranged by Richard & Karen Carpenter

Transcribed by Slowhand


Gtr I (E A D G B E) - 'Gary Sims - Electric Guitar'
Gtr II (E A D G B E) - 'Tony Peluso - Electric Guitar'
Gtr III (E A D G B E) - 'Bob Messenger - Flute'


 Intro
  Q=192(8=s8)
  N.C.
 4/4
  Gtr III (Flute arr. for Gtr.)
  H     q   q     Q  E  E E  E E  E    H     q   q     q   H.
|----------10--|-12--------------10-|-12----10------|-10---------|
|------12------|-------12---12------|-----------12--|-----10-----|
|--------------|--------------------|---------------|------------|
|--------------|--------------------|---------------|------------|
|--------------|--------------------|---------------|------------|
|--------------|--------------------|---------------|------------|


  H     q   q     H     q   E  E    +H      Q.    E
|------10--10--|-12----12--10-12-|-(12)----10-------|
|--------------|-----------------|---------------12-|
|--------------|-----------------|------------------|
|--------------|-----------------|------------------|
|--------------|-----------------|------------------|
|--------------|-----------------|------------------|


  D                          G
  Gtr I (Clean El. Gtr.)
   E  E  E   E  E  E  E  E     E   E  E  E  E  E  E  E
|-------10--------10-------|--10-----10-----9-----8----|
|-11s12-----11s12----11s12-|------12----12----12----12-|
|--------------------------|---------------------------|
|--------------------------|---------------------------|
|--------------------------|---------------------------|
|--------------------------|---------------------------|
|
| Gtr II (Clean El. Gtr.)
|  E  E  E   E  E  E  E  E     E   E  E  E  E  E  Q
|--------------------------|---------------------------|
|--------------------------|--12-----12----11----10----|
|-------10--------10-------|---------------------------|
|-11s12-----11s12----11s12-|------12----11----10-------|
|--------------------------|---------------------------|
|--------------------------|---------------------------|
|
| Gtr III
|  q     H.                   +W
|--------------------------|---------------------------|
|-10-----------------------|---------------------------|
|-------12-----------------|-(12)----------------------|
|--------------------------|---------------------------|
|--------------------------|---------------------------|
|--------------------------|---------------------------|


   E  E  E  E  E   E  q      Q   E   E      +E   Q      E
|-------10----------------|-------------------------------||
|-12-------13-12--10------|-------------------------------||
|----12--------------12---|---------14pb16r(14)-14b16--12-||
|-------------------------|-------------------------------||
|-------------------------|-------------------------------||
|-------------------------|-------------------------------||
|
|  Q     E  E +Q      E E   +Q   H.
|-------------------------|-------------------------------||
|--8--------8-(8)-----8---|-------------------------------||
|--------7--------------7-|-(7)--7------------------------||
|--9----------------------|-------------------------------||
|-------------------------|-------------------------------||
|-------------------------|-------------------------------||
|
|  W                         W
|-------------------------|-------------------------------||
|-------------------------|-------------------------------||
|-------------------------|-------------------------------||
|-------------------------|-------------------------------||
|-------------------------|-------------------------------||
|-------------------------|-------------------------------||


 1st Verse
  G
   Q   E  E  E  E  E  E    Q   E  E  E  E  E  E
|-----------------------|-----------------------|
|-----------------------|-----------------------|
|--------12-------12----|--------12-------12----|
|-----12----12-------12-|-----12----12-------12-|
|-10-----------10-------|-10-----------10-------|
|-----------------------|-----------------------|
|
| Gtr III
|  W                       W
|-----------------------|-----------------------|
|-----------------------|-----------------------|
|-----------------------|-----------------------|
|-----------------------|-----------------------|
|-----------------------|-----------------------|
|-----------------------|-----------------------|


  D
  Q   E  E  Q    q        W
|---------------------|---------|
|----10---------------|--10-----|
|-------11------11----|---9-----|
|----------12---------|--12-----|
|-9-------------------|---9-----|
|---------------------|---------|
|
| H         E E  E  E    +W
|---------------------|---------|
|----------10-8----10-|-(10)----|
|---------------11----|---------|
|---------------------|---------|
|---------------------|---------|
|---------------------|---------|


                                   G
  Q   E  E  +Q    Q     W           Q.     E  Q     Q        W
|--------------------|-----------|-----------------------|---------|
|--------------------|-10--------|-12-----12-12----12----|--12-----|
|----11----------11--|--9--------|-12-----12-12----12----|--12-----|
|-------12-(12)------|-12--------|-12-----12-12----12----|--12-----|
|-9------------------|--9--------|-10-----10-10----10----|--10-----|
|--------------------|-----------|-----------------------|---------|
|
| W                     W           Q   E  E  E  E  E  E    +W
|--------------------|-----------|-----------------------|---------|
|--------------------|-----------|-----------12----------|---------|
|--------------------|-----------|--------------14-12----|---------|
|--------------------|-----------|--------12----------12-|-(12)----|
|--------------------|-----------|-----------------------|---------|
|--------------------|-----------|-----------------------|---------|


   Q.    E  H       Q.    E  H
|----------------|----------------|
|-12----12-12----|-12----12-12----|
|-12----12-12----|-12----12-12----|
|-12----12-12----|-12----12-12----|
|-10----10-10----|-10----10-10----|
|----------------|----------------|
|
|  W                W
|----------------|----------------|
|----------------|----------------|
|----------------|----------------|
|----------------|----------------|
|----------------|----------------|
|----------------|----------------|


  D
   Q.      E  Q    Q        Q    Q   +E   E  Q
|-----------------------|-----------------------|
|-10------10-10---10----|--10---10--(10)-10-10--|
|--9-------9--9----9----|---9----9---(9)--9--9--|
|-12------12-12---12----|--12---12--(12)-12-12--|
|--9-------9--9----9----|---9----9---(9)--9--9--|
|-----------------------|-----------------------|
|
|  Q    q     E E  E  E    +W
|------10---------------|-----------------------|
|------------10-8-------|-----------------------|
|--------------------11-|-(11)------------------|
|-----------------------|-----------------------|
|-----------------------|-----------------------|
|-----------------------|-----------------------|


   Q.    E  H       E   Q.    Q  Q
|----------------|------------------|
|-10----10-10----|-10-(10)---10-----|
|--9-----9--9----|--9h=11-----9-----|
|-12----12-12----|-12-(12)---12-----|
|--9-----9--9----|--9--(9)----9--9--|
|----------------|------------------|
|
|  W                W
|----------------|------------------|
|----------------|------------------|
|----------------|------------------|
|----------------|------------------|
|----------------|------------------|
|----------------|------------------|


  G
   E  E  E  E  E  E  E  E   E E  E E E  E E E
|-------------------------|-------------------||
|-12-12-12-12-12-12-12-12-|-------------------||
|-12-12-12-12-12-12-12-12-|---7---------------||
|-12-12-12-12-12-12-12-12-|---------------7h9-||
|-10-10-10-10-10-10-10-10-|--------7-9h10-----||
|-------------------------|-----10------------||
|
|  E  E  E  E  E  E  E  E   W
|-------------15----------|-------------------||
|----15-14-15----15-------|-------------------||
|-------------------16----|-------------------||
|----------------------17-|-------------------||
|-------------------------|-------------------||
|-------------------------|-------------------||


   2nd & 3rd Verses
    G                                 D
    Q  Q  +E  E Q    Q  Q  +E  E Q    Q  Q  +E  E  Q        Q   E  E  E Q.
||--3--3--(3)-3-3--|-3--3--(3)-3-3--|-2--2--(2)-2--2----|---2---0h=2--2-0-----|
||o-0--0--(0)-0-0--|-0--0--(0)-0-0--|-3--3--(3)-3--3----|---3---3-(3)-3-3-----|
||--0--0--(0)-0-0--|-0--0--(0)-0-0--|-2--2--(2)-2--2----|---2---2-(2)-2-2-----|
||--0--0--(0)-0-0--|-0--0--(0)-0-0--|-0--0--(0)-0--0----|---0---0-(0)-0-0-----|
||o-2--2--(2)-2-2--|-2--2--(2)-2-2--|-------------------|---------------------|
||--3--3--(3)-3-3--|-3--3--(3)-3-3--|-------------------|---------------------|
|
|   W                W                H      E  E  E  E    +W
||-----------------|----------------|-------------------|---------------------|
||o----------------|----------------|-------10--8----10-|-(10)----------------|
||-----------------|----------------|-------------11----|---------------------|
||-----------------|----------------|-------------------|---------------------|
||o----------------|----------------|-------------------|---------------------|
||-----------------|----------------|-------------------|---------------------|


                                    G
  Q  Q  +E  E Q    Q  Q  +E  E Q    Q   Q    +E   E  Q        Q   Q  +E  E Q
|-2--2--(2)-2-2--|-2--2--(2)-2-2--|-3---3----(3)--3--3----|---3---3--(3)-3-3--|
|-3--3--(3)-3-3--|-3--3--(3)-3-3--|-0---0----(0)--0--0----|---0---0--(0)-0-0--|
|-2--2--(2)-2-2--|-2--2--(2)-2-2--|-0---0----(0)--0--0----|---0---0--(0)-0-0--|
|-0--0--(0)-0-0--|-0--0--(0)-0-0--|-0---0----(0)--0--0----|---0---0--(0)-0-0--|
|----------------|----------------|-2---2----(2)--2--2----|---2---2--(2)-2-2--|
|----------------|----------------|-3---3----(3)--3--3----|---3---3--(3)-3-3--|
|
| W                W                Q   E  E  E   E  E  E    +W
|----------------|----------------|-----------------------|-------------------|
|----------------|----------------|----12----12--10-------|-------------------|
|----------------|----------------|-----------------12----|-------------------|
|----------------|----------------|-------12-----------12-|-(12)--------------|
|----------------|----------------|-----------------------|-------------------|
|----------------|----------------|-----------------------|-------------------|


  Q  Q  +E  E Q    Q  Q  +E  E Q
|-3--3--(3)-3-3--|-3--3--(3)-3-3--|
|-0--0--(0)-0-0--|-0--0--(0)-0-0--|
|-0--0--(0)-0-0--|-0--0--(0)-0-0--|
|-0--0--(0)-0-0--|-0--0--(0)-0-0--|
|-2--2--(2)-2-2--|-2--2--(2)-2-2--|
|-3--3--(3)-3-3--|-3--3--(3)-3-3--|
|
| Gtr II
| W                W
|----------------|----------------|
|----------------|----------------|
|----------------|----------------|
|----------------|----------------|
|----------------|----------------|
|----------------|----------------|
|
| Gtr III
| W                W
|----------------|----------------|
|----------------|----------------|
|----------------|----------------|
|----------------|----------------|
|----------------|----------------|
|----------------|----------------|


  D
  Q   Q    +E  E Q       +E       E  E E Q        E E
|-2---2----(2)-2-2----|--(2)------2--2-2-2--------2-2---|
|-3---3----(3)-3-3----|--(3)------3--3-3-3--------3-3---|
|-2---2----(2)-2-2----|--(2)------2--2-2-2--------2-2---|
|-0---0----(0)-0-0----|--(0)------0--0-0-0--------0-0---|
|---------------------|---------------------------------|
|---------------------|---------------------------------|
|
| H      a  E  E E  E     E  a   +Q.     E    +E  Q
|----------------5----|---5--5b7-(5)--------------------|
|--------7s=5--3----3-|------5b7-(5)-----5pb7r(5)-3-----|
|---------------------|---------------------------------|
|---------------------|---------------------------------|
|---------------------|---------------------------------|
|---------------------|---------------------------------|
|
| Q   q     E  E E  E    +W
|----10---------------|---------------------------------|
|----------10--8------|---------------------------------|
|------------------11-|-(11)----------------------------|
|---------------------|---------------------------------|
|---------------------|---------------------------------|
|---------------------|---------------------------------|


                                             G
  Q  Q  +E  E Q    Q     Q    +E   E  Q      Q  E E E E E E   q  Q  H
|-2--2--(2)-2-2--|-2-----2----(2)--2--2----|-3--3-3-3-3-3-3-|-3----------||
|-3--3--(3)-3-3--|-3-----3----(3)--3--3----|-0--0-0-0-0-0-0-|-0----------||
|-2--2--(2)-2-2--|-2-----2----(2)--2--2----|-0--0-0-0-0-0-0-|-0----------||
|-0--0--(0)-0-0--|-0-----0----(0)--0--0----|-0--0-0-0-0-0-0-|-0----------||
|----------------|-------------------------|-2--2-2-2-2-2-2-|-2----------||
|----------------|-------------------------|-3--3-3-3-3-3-3-|-3----------||
|
| Gtr III
| W                E  E  E  E  E   E  E  E   W                W
|----------------|------------15-----------|----------------|------------||
|----------------|---15-14-15-----15-------|----------------|------------||
|----------------|-------------------16----|----------------|------------||
|----------------|----------------------17-|----------------|------------||
|----------------|-------------------------|----------------|------------||
|----------------|-------------------------|----------------|------------||


 Chorus
  $
  $$
  G
   Q   Q  +E   E  Q        Q   Q  +E  E  Q
|--3---3--(3)--3--3----|---3---3--(3)-3--3----|
|--0---0--(0)--0--0----|---0---0--(0)-0--0----|
|--0---0--(0)--0--0----|---0---0--(0)-0--0----|
|--0---0--(0)--0--0----|---0---0--(0)-0--0----|
|--2---2--(2)--2--2----|---2---2--(2)-2--2----|
|--3---3--(3)--3--3----|---3---3--(3)-3--3----|
|
| Gtr II
|  W                       W
|----------------------|----------------------|
|----------------------|----------------------|
|----------------------|----------------------|
|----------------------|----------------------|
|----------------------|----------------------|
|----------------------|----------------------|
|
| Gtr III
|  q   q   E   E  e  E    +H       Q     E  E
|----------------------|----------------------|
|----------------------|----------------------|
|----------------------|----------------------|
|-12--12---------12-14-|-(14)-----12----------|
|---------13--14-------|----------------14-12-|
|----------------------|----------------------|


  D
   Q.     E  Q    Q       +Q        Q       +E  E  Q
|--2------0--0----0----|--(0)-------0-------(0)-0--0--|
|--3------3--3----3----|--(3)-------3-------(3)-3--3--|
|--2------2--2----2----|--(2)-------2-------(2)-2--2--|
|--0------0--0----0----|--(0)-------0-------(0)-0--0--|
|----------------------|------------------------------|
|----------------------|------------------------------|
|
|  Q   E  E  Q    Q        E   +E   E  E    +E  Q.
|----------------------|------------5-----------------|
|------------3----5----|---5b7-(5)-(5)-5pb7r(5)-3-----|
|---------2------------|------------------------------|
|----------------------|------------------------------|
|----------------------|------------------------------|
|----------------------|------------------------------|
|
|  Q   E  E  E E  E  E    +W
|----------------------|------------------------------|
|-----------10-8----10-|-(10)-------------------------|
|-11-----11------11----|------------------------------|
|----------------------|------------------------------|
|----------------------|------------------------------|
|----------------------|------------------------------|


  Dsus2
  Q  Q  +E  E Q    Q  Q  +E  E Q
|-0--0--(0)-0-0--|-0--0--(0)-0-0--|
|-3--3--(3)-3-3--|-3--3--(3)-3-3--|
|-2--2--(2)-2-2--|-2--2--(2)-2-2--|
|-0--0--(0)-0-0--|-0--0--(0)-0-0--|
|----------------|----------------|
|----------------|----------------|
|
| W                W
|----------------|----------------|
|----------------|----------------|
|----------------|----------------|
|----------------|----------------|
|----------------|----------------|
|----------------|----------------|
|
| W                W
|----------------|----------------|
|----------------|----------------|
|----------------|----------------|
|----------------|----------------|
|----------------|----------------|
|----------------|----------------|


     G
      Q      Q       +E   E  Q        Q        Q    +E    E  Q
|-----3------3-------(3)--3--3----|---3--------3----(3)---3--3----|
|-----0------0-------(0)--0--0----|---0--------0----(0)---0--0----|
|-----0------0-------(0)--0--0----|---0--------0----(0)---0--0----|
|-----0------0-------(0)--0--0----|---0--------0----(0)---0--0----|
|-----2------2-------(2)--2--2----|---2--------2----(2)---2--2----|
|-----3------3-------(3)--3--3----|---3--------3----(3)---3--3----|
|
|  a  Q   a  Q     a  E   E  E  E     E   Q       E  E    E  E E
|---------------------------10----|--10----------10---------------|
|-10s12--10s12----12s10---8-----8-|------10b12------10b12-8-10-8--|
|---------------------------------|-------------------------------|
|---------------------------------|-------------------------------|
|---------------------------------|-------------------------------|
|---------------------------------|-------------------------------|
|
|     Q      E  E     E   E  E  E    +W
|---------------------------------|-------------------------------|
|-----------12-------12--10-------|-------------------------------|
|---------------------------12----|-------------------------------|
|--------------12--------------12-|-(12)--------------------------|
|---------------------------------|-------------------------------|
|---------------------------------|-------------------------------|


   Q      Q          +E  E Q     Q     Q  +E  E Q
|--3------3----------(3)-3-3--|--3-----3--(3)-3-3--|
|--0------0----------(0)-0-0--|--0-----0--(0)-0-0--|
|--0------0----------(0)-0-0--|--0-----0--(0)-0-0--|
|--0------0----------(0)-0-0--|--0-----0--(0)-0-0--|
|--2------2----------(2)-2-2--|--2-----2--(2)-2-2--|
|--3------3----------(3)-3-3--|--3-----3--(3)-3-3--|
|
|  Q      Q   a      +Q    Q     H         Q    Q
|--------10-------------------|--------------------|
|-10b12------10pb12r(10)---8--|-10b12-----10----8--|
|-----------------------------|--------------------|
|-----------------------------|--------------------|
|-----------------------------|--------------------|
|-----------------------------|--------------------|
|
|  W                             W
|-----------------------------|--------------------|
|-----------------------------|--------------------|
|-----------------------------|--------------------|
|-----------------------------|--------------------|
|-----------------------------|--------------------|
|-----------------------------|--------------------|


  D
  Q   Q    +E   E  Q       +E  Q.   H
|-2---2----(2)--2--2----|--(2)-0----0----|
|-3---3----(3)--3--3----|--(3)-3----3----|
|-2---2----(2)--2--2----|--(2)-2----2----|
|-0---0----(0)--0--0----|--(0)-0----0----|
|-----------------------|----------------|
|-----------------------|----------------|
|
| Q   E  E  E   E  E  E     W
|----------10------9--8-|----------------|
|----10s12-12-----11-10-|----------------|
|-----9s11-----10-10--9-|----------------|
|-----------------------|----------------|
|-----------------------|----------------|
|-----------------------|----------------|
|
| Q   q     E   E  E  E    +W
|----10-----------------|----------------|
|----------10---8-------|----------------|
|--------------------11-|-(11)-----------|
|-----------------------|----------------|
|-----------------------|----------------|
|-----------------------|----------------|


                        To Dbl. Coda
  Q  Q  +E  E Q     Q    Q  +E  E Q
|-2--2--(2)-2-2---|-2----2--(2)-2-2--|
|-3--3--(3)-3-3---|-3----3--(3)-3-3--|
|-2--2--(2)-2-2---|-2----2--(2)-2-2--|
|-0--0--(0)-0-0---|-0----0--(0)-0-0--|
|-----------------|------------------|
|-----------------|------------------|
|
| H      Q    E E   E Q.     H
|-----------------|------------------|
|-------------8-8-|---8------7-------|
|-------------9-9-|---7------7-------|
|-----------------|------------------|
|-----------------|------------------|
|-----------------|------------------|
|
| W                 W
|-----------------|------------------|
|-----------------|------------------|
|-----------------|------------------|
|-----------------|------------------|
|-----------------|------------------|
|-----------------|------------------|


                            1.
                   To Coda
  G
  Q.        E +E   E Q       q    Q     H
|-3---------3-(3)--3-3-----|-3---------------------||
|-0---------0-(0)--0-0-----|-0---------------------||
|-0---------0-(0)--0-0-----|-0---------------------||
|-0---------0-(0)--0-0-----|-0---------------------||
|-2---------2-(2)--2-2-----|-2---------------------||
|-3---------3-(3)--3-3-----|-3---------------------||
|
| Q      q     q     E  e    q    Q     H
|--------7-----5--------3--|-3---------------------||
|--------8-----3--------3--|-3---------------------||
|--------------------------|-----------------------||
|--------------------------|-----------------------||
|--------------------------|-----------------------||
|--------------------------|-----------------------||
|
| E   E  E  E  E   E E  E    E  E E  E  E  E  E  E
|--------------------------|-----------------10----||
|--------------------------|--------------12----12-||
|-------------12-----------|-----------12----------||
|----12-11-12-----12-9-----|------9-12-------------||
|----------------------10--|---10------------------||
|--------------------------|-----------------------||


 Flute Solo
  G
   Q        Q       +E   E  Q       Q     Q    +E   E  Q
|--3--------3-------(3)--3--3----|--3-----3----(3)--3--3----|
|--0--------0-------(0)--0--0----|--0-----0----(0)--0--0----|
|--0--------0-------(0)--0--0----|--0-----0----(0)--0--0----|
|--0--------0-------(0)--0--0----|--0-----0----(0)--0--0----|
|--2--------2-------(2)--2--2----|--2-----2----(2)--2--2----|
|--3--------3-------(3)--3--3----|--3-----3----(3)--3--3----|
|
| Gtr III
|           |--3--|
|  E  S  S  E  E  E  E   E  E  E    E  E  E  E  E   E  E  E
|--------------------------------|--------------------------|
|--------------------------------|--------------------------|
|-12-14-12-11-12-14-12-----------|--------------------12----|
|-----------------------12-------|-----------------12----12-|
|--------------------------14-10-|-12-10----10-14-----------|
|--------------------------------|-------14-----------------|


  D
   Q     Q    +E   E  Q       E Q.    a Q   q
|--2-----2----(2)--2--2----|--2-0-----2p0-------|
|--3-----3----(3)--3--3----|--3-3-----------3---|
|--2-----2----(2)--2--2----|--2-2---------------|
|--0-----0----(0)--0--0----|--0-0---------------|
|--------------------------|--------------------|
|--------------------------|--------------------|
|
|  E  E  E  E  E   E  E  E    q    Q    Q   q
|----------12--------------|---------------12---|
|-------13----15-----------|--------------------|
|-11-14-----------16-14-11-|--------------------|
|--------------------------|-12-----------------|
|--------------------------|--------------------|
|--------------------------|--------------------|


   Q  E E +Q   E  E   +E   E  Q     Q     E  E
|--2--2-2-(2)--2--2-|-(2)--2--2-----2-----2--2----|
|--3--3-3-(3)--3--3-|-(3)--3--3-----3-----3--3----|
|--2--2-2-(2)--2--2-|-(2)--2--2-----2-----2--2----|
|--0--0-0-(0)--0--0-|-(0)--0--0-----0-----0--0----|
|-------------------|-----------------------------|
|-------------------|-----------------------------|
|
|  H       Q.     E    E   E  E  E  E  E  E  S  S
|-------------------|-----------------------------|
|-15------15-----15-|-----13-------12-------------|
|-------------------|-14-----10-11----11-12-14-12-|
|-------------------|-----------------------------|
|-------------------|-----------------------------|
|-------------------|-----------------------------|


  G
   Q     Q    +E   E  Q       Q  Q  +E   E  Q
|--3-----3----(3)--3--3----|--3--3--(3)--3--3----|
|--0-----0----(0)--0--0----|--0--0--(0)--0--0----|
|--0-----0----(0)--0--0----|--0--0--(0)--0--0----|
|--0-----0----(0)--0--0----|--0--0--(0)--0--0----|
|--2-----2----(2)--2--2----|--2--2--(2)--2--2----|
|--3-----3----(3)--3--3----|--3--3--(3)--3--3----|
|
|  E  E  E  E  E   E  E  E    q  Q   E   E  E  E
|--------------------------|---------------------|
|--------------------------|--------15--15-14-17-|
|-11-----------------------|-12------------------|
|----12-----------------12-|---------------------|
|-------14-10-----10-14----|---------------------|
|-------------10-----------|---------------------|


   Q   Q  +E  E Q          Q         Q     +E   E  Q
|--3---3--(3)-3-3-------|--3---------3-----(3)--3--3----|
|--0---0--(0)-0-0-------|--0---------0-----(0)--0--0----|
|--0---0--(0)-0-0-------|--0---------0-----(0)--0--0----|
|--0---0--(0)-0-0-------|--0---------0-----(0)--0--0----|
|--2---2--(2)-2-2-------|--2---------2-----(2)--2--2----|
|--3---3--(3)-3-3-------|--3---------3-----(3)--3--3----|
|
|  Q   Q   Q.      S  S    E  S  S  +E   E  E   E  E  E
|-----------------------|-------------------------------|
|-15--------------------|-------------------------------|
|-----16--12------14-12-|-11-14-12-(12)-----------------|
|-----------------------|---------------12--------------|
|-----------------------|------------------14--10-12-14-|
|-----------------------|-------------------------------|


  D
   Q.        E  Q     Q      +E   Q.        Q  Q
|--2---------2--2-----2----|-(2)--0---------0--0----|
|--3---------3--3-----3----|-(3)--3---------3--3----|
|--2---------2--2-----2----|-(2)--2---------2--2----|
|--0---------0--0-----0----|-(0)--0---------0--0----|
|--------------------------|------------------------|
|--------------------------|------------------------|
|
|  E   E  E  E  E  E  E  E    E   E   E  E  Q  Q
|--------------------------|-----12-----------------|
|--------------------------|-13------15-13----------|
|-----------------14----14-|---------------14-------|
|-12--------12-14----16----|------------------------|
|--------12----------------|------------------------|
|-----14-------------------|------------------------|


  Q.     E  Q   Q      +E   Q.       H
|-2------2--2---2----|-(2)--0--------0---------|
|-3------3--3---3----|-(3)--3--------3---------|
|-2------2--2---2----|-(2)--2--------2---------|
|-0------0--0---0----|-(0)--0--------0---------|
|--------------------|-------------------------|
|--------------------|-------------------------|
|
| Q    q    Q.     E    E   E   E  E E  E E  E
|-----12-------------|-------------------------|
|----------15-----13-|-----12--13--------------|
|--------------------|-14---------14---11------|
|--------------------|----------------------12-|
|--------------------|-------------------------|
|--------------------|-------------------------|


   Q.           E +E   E  E       E       q  Q  H
|--3------------3-(3)--3--3-------3----|--3-----------||
|--0------------0-(0)--0--0-------0----|--0----------o||
|--0------------0-(0)--0--0-------0----|--0-----------||
|--0------------0-(0)--0--0-------0----|--0-----------||
|--2------------2-(2)--2--2-------2----|--2----------o||
|--3------------3-(3)--3--3-------3----|--3-----------||
|
|                         |----3-----|
|  E   S  S  E  E  E   E  S  S  E    E    q  Q  H
|--------------------------------------|--------------||
|-----------------12--15-12------------|-------------o||
|-12--14-12----12----------------------|-12-----------||
|-----------12----------------------12-|--------------||
|---------------------------13-14------|-------------o||
|--------------------------------------|--------------||


                    Guitar Solo
  2.
  N.C.               G
  W                  Q       Q    +E  E Q
|-----------------||-3-------3----(3)-3-3-----|
|-----------------||-0-------0----(0)-0-0-----|
|-----------------||-0-------0----(0)-0-0-----|
|-----------------||-0-------0----(0)-0-0-----|
|-----------------||-2-------2----(2)-2-2-----|
|-----------------||-3-------3----(3)-3-3-----|
|
| Gtr II
|                                       |-3-|
| E E E E E E E E    E E    +E  E  E  E E E E
|-----------------||--------------------------|
|-----------------||------------------------3-|
|---------------0-||-2-2pb4r(2)-0--2--0-2s4---|
|-----------0-2---||--------------------------|
|-----0-1-2-------||--------------------------|
|---3-------------||--------------------------|


                          D
    Q     Q   +E  E Q     Q         Q    +E  E Q
|---3-----3---(3)-3-3---|-2---------2----(2)-2-2----|
|---0-----0---(0)-0-0---|-3---------3----(3)-3-3----|
|---0-----0---(0)-0-0---|-2---------2----(2)-2-2----|
|---0-----0---(0)-0-0---|-0---------0----(0)-0-0----|
|---2-----2---(2)-2-2---|---------------------------|
|---3-----3---(3)-3-3---|---------------------------|
|
|   |-3-|
| a E E E E E  E  Q   E   E    +E  +E  E  E  E E E
|--------------3--3---3-|-2b3==(2)r(2)--------------|
|-5s6s5p3h5-3-----------|--------------3---------3--|
|-----------------------|-----------------2--2h4----|
|-----------------------|---------------------------|
|-----------------------|---------------------------|
|-----------------------|---------------------------|


          Dsus2
  +E       Q.         Q   Q       Q    Q     +E  E  Q
|-(2)------0----------0---0--|----0----0-----(0)-0--0---|
|-(3)------3----------3---3--|----3----3-----(3)-3--3---|
|-(2)------2----------2---2--|----2----2-----(2)-2--2---|
|-(0)------0----------0---0--|----0----0-----(0)-0--0---|
|----------------------------|--------------------------|
|----------------------------|--------------------------|
|
|  E  a   +Q.   a    +Q   Q    a  Q    q   a  Q     q
|--5--5b7-(5)----------------|--------10------------8---|
|-----5b7-(5)---5pb7r(5)p=3--|--------12-----------10---|
|----------------------------|-5s11--(11)--5s=9----(9)--|
|----------------------------|--------------------------|
|----------------------------|--------------------------|
|----------------------------|--------------------------|


                           G
    Q   E  E   +Q    Q     Q   Q   +E  E Q
|---0--------------------|-3---3---(3)-3-3----|
|---3---3--3---(3)---1---|-0---0---(0)-0-0----|
|---2---2--2---(2)---2---|-0---0---(0)-0-0----|
|---0---0--0---(0)---0---|-0---0---(0)-0-0----|
|------------------------|-2---2---(2)-2-2----|
|------------------------|-3---3---(3)-3-3----|
|
| a Q   q    a  Q    q     E E E E  E  E E E
|-------7------------5---|-------5h=7--5------|
|------------------------|-----8---------8----|
|-3s7--(7)---2s=5---(5)--|-5h7-------------7\-|
|------------------------|--------------------|
|------------------------|--------------------|
|------------------------|--------------------|


  Q    Q   +E  E Q    Q     Q         +E  E  Q
|-3----3---(3)-3-3--|-3-----3---------(3)-3--3---|
|-0----0---(0)-0-0--|-0-----0---------(0)-0--0---|
|-0----0---(0)-0-0--|-0-----0---------(0)-0--0---|
|-0----0---(0)-0-0--|-0-----0---------(0)-0--0---|
|-2----2---(2)-2-2--|-2-----2---------(2)-2--2---|
|-3----3---(3)-3-3--|-3-----3---------(3)-3--3---|
|
| E  Q   E  Q    q    E   Q    E      +E  E  E E
|----------------5--|---/10----------------------|
|-----------8-------|---------10pb12r(10)p8-10-8-|
|---/7---7----------|----------------------------|
|-------------------|----------------------------|
|-------------------|----------------------------|
|-------------------|----------------------------|


                                    D
   Q        Q            +E  E  Q
|--3--------3------------(3)-3--3-----|
|--0--------0------------(0)-0--0-----|
|--0--------0------------(0)-0--0-----|
|--0--------0------------(0)-0--0-----|
|--2--------2------------(2)-2--2-----|
|--3--------3------------(3)-3--3-----|
|
|  E     E  E      E  a  +E  E  E E
|-------10--------10------------------|
|-10b12----10b12=====10r(10)-8-10-8---|
|-------------------------------------|
|-------------------------------------|
|-------------------------------------|
|-------------------------------------|


   Q     Q         +E       E     Q
|--2-----2---------(2)------2-----2----|
|--3-----3---------(3)------3-----3----|
|--2-----2---------(2)------2-----2----|
|--0-----0---------(0)------0-----0----|
|--------------------------------------|
|--------------------------------------|
|
|                   |----3-----|
|  E  E  E  E      +E   +E     E  e  E
|--------------------------------------|
|-------10-12b13==(12)r(12)p==10-12-10-|
|-10-11--------------------------------|
|--------------------------------------|
|--------------------------------------|
|--------------------------------------|


  +E   Q.              Q    Q        Q   E E +E          Q        E
|-(2)--0---------------0----0--|-----0---0-0-(0)---------2--------0--|
|-(3)--3---------------3----3--|-----3---3-3-(3)---------3--------3--|
|-(2)--2---------------2----2--|-----2---2-2-(2)---------2--------2--|
|-(0)--0---------------0----0--|-----0---0-0-(0)---------0--------0--|
|------------------------------|-------------------------------------|
|------------------------------|-------------------------------------|
|
|                                             |------3------|
|  e   Q.      a      +Q    q     a  Q   q    E      +E     E  E  E
|-12--12b14---12pb14r(12)--10--|--------10---12pb14r(12)p==10-12-10--|
|------------------------------|-10s12-------------------------------|
|------------------------------|-------------------------------------|
|------------------------------|-------------------------------------|
|------------------------------|-------------------------------------|
|------------------------------|-------------------------------------|


                                                              D.S. al Coda
                                   G
  +E      E   Q     +E   E  Q       Q.        E +E      E   Q     q  Q  H
|-(0)-----0---0-----(0)--0--0----|--3---------3-(3)-----3---3---|-3----------||
|-(3)-----3---3-----(3)--3--3----|--0---------0-(0)-----0---0---|-0----------||
|-(2)-----2---2-----(2)--2--2----|--0---------0-(0)-----0---0---|-0----------||
|-(0)-----0---0-----(0)--0--0----|--0---------0-(0)-----0---0---|-0----------||
|--------------------------------|--2---------2-(2)-----2---2---|-2----------||
|--------------------------------|--3---------3-(3)-----3---3---|-3----------||
|
|  E      E  +E   E  E   E  E  E    E   E  E  E  E      E  +Q     W
|-15b17==15r(15)-13-14-----12----|-15--15-12--------------------|------------||
|-----------------------15----15-|-----------15-14b15==14r(14)--|------------||
|--------------------------------|------------------------------|------------||
|--------------------------------|------------------------------|------------||
|--------------------------------|------------------------------|------------||
|--------------------------------|------------------------------|------------||


               Chorus
  &                                                      D.S.S. al Dbl. Coda
  G             N.C.
  q  Q  H       Wx14           q   q   E  E  E  E    E  Q       E  H
|-3----------||-------------|---------------------|--------------------------||
|-0----------||-------------|-----12-----------12-|-15---------15------------||
|-0----------||-------------|-14------14-12-14----|----14b16------14b16------||
|-0----------||-------------|---------------------|--------------------------||
|-2----------||-------------|---------------------|--------------------------||
|-3----------||-------------|---------------------|--------------------------||
|
| Gtr III
| W             Wx14           W                     Q       E  E  q      q
|------------||-------------|---------------------|--------------------------||
|------------||-------------|---------------------|--------------------------||
|------------||-------------|---------------------|--------------------------||
|------------||-------------|---------------------|------------14-12-----14--||
|------------||-------------|---------------------|--------------------------||
|------------||-------------|---------------------|--------------------------||


  &&
  G
   Q   E +E   Q.        E    Q     Q   H
|--3---3-(3)--3---------3-|--3-----3---3----||
|--0---0-(0)--0---------0-|--0-----0---0----||
|--0---0-(0)--0---------0-|--0-----0---0----||
|--0---0-(0)--0---------0-|--0-----0---0----||
|--2---2-(2)--2---------2-|--2-----2---2----||
|--3---3-(3)--3---------3-|--3-----3---3----||
|
| Gtr II
|  W                         W
|-------------------------|-----------------||
|-------------------------|-----------------||
|-------------------------|-----------------||
|-------------------------|-----------------||
|-------------------------|-----------------||
|-------------------------|-----------------||
|
| Gtr III
|  q   q      E   E  E  E    E  E  q   H
|-------------------------|-----------------||
|------------12--15-12----|-------12--------||
|----------------------12-|----12-----------||
|-14----------------------|-12--------------||
|-----14------------------|-----------14----||
|-------------------------|-----------------||


 Outro
  N.C.
  E E E E E E E  E   E  E  E  E  H
|-----3-----5------|-6--------7--------|
|------------------|-------------8\----|
|-2s4---4s5---5s=6-|----6s=7-----------|
|------------------|-------------------|
|------------------|-------------------|
|------------------|-------------------|
|
| E E E E E E E  E   E  E  E  E  H
|-----7-----8------|-9-------10--------|
|------------------|------------12\----|
|-5s7---7s9---9s10-|---11s12-----------|
|------------------|-------------------|
|------------------|-------------------|
|------------------|-------------------|
|
| W                  W
|------------------|-------------------|
|------------------|-------------------|
|------------------|-------------------|
|------------------|-------------------|
|------------------|-------------------|
|------------------|-------------------|


                         D7 G6
  W                   Q  q  H      +W
|-------------------|----2--0----|-(0)----*|
|-------------------|----1--0----|-(0)----*|
|-------------------|----2--0----|-(0)----*|
|-------------------|----0--0----|-(0)----*|
|-------------------|-------2----|-(2)----*|
|-------------------|-------3----|-(3)----*|
|
| E E E E E E a E E   q  q  H      +W
|-------------------|------------|--------*|
|-----------------3-|-6--7--8----|-(8)----*|
|-----------0-2s4---|------------|--------*|
|-------0-2---------|------------|--------*|
|-0-1-2-------------|------------|--------*|
|-------------------|------------|--------*|


Duration Legend
---------------
W - whole; H - half; Q - quarter; E - 8th; S - 16th; T - 32nd; X - 64th; a - acciaccatura
+ - note tied to previous; . - note dotted; .. - note double dotted
Uncapitalized letters represent notes that are staccato (1/2 duration)
Irregular groupings are notated above the duration line
Duration letters will always appear directly above the note/fret number it represents the
duration for.  Duration letters with no fret number below them represent rests.  Multi-
bar rests are notated in the form Wxn, where n is the number of bars to rest for.  Low
melody durations appear below the staff

Tablature Legend
----------------
 h   - hammer-on
 p   - pull-off
 b   - bend
 pb  - pre-bend
 r   - bend release (if no number after the r, then release immediately)
 /\  - slide into or out of (from/to "nowhere")
 s   - legato slide
 S   - shift slide
  - natural harmonic
[n]  - artificial harmonic
n(n) - tapped harmonic
 ~   - vibrato
 tr  - trill
 T   - tap
 TP  - trem. picking
 PM  - palm muting
\n/  - tremolo bar dip; n = amount to dip
 \n  - tremolo bar down
 n/  - tremolo bar up
/n\  - tremolo bar inverted dip
 =   - hold bend; also acts as connecting device for hammers/pulls
 <>  - volume swell (louder/softer)
 x   - on rhythm slash represents muted slash
 o   - on rhythm slash represents single note slash

Misc Legend
-----------
 |  - bar
||  - double bar
||o - repeat start
o|| - repeat end
*|  - double bar (ending)
 :  - bar (freetime)
 $  - Segno
 &  - Coda
Tempo markers -  = BPM(8/16=s8/s16), where s8 = swing 8ths, s16 = swing 16ths
Добавлено: 11.06.2016
Другие материалы по этой песне:

Страница создана 23.03.2012
http://primanota.ru/carpenters/jambalaya-chords.htm
Привет, Гость.
Предлагаем пройти революционный курс по гитаре.
Подарок от PrimaNota.Ru, забирай!