PrimaNota.ru - самый крупный в мире бесплатный архив песенных текстов, аккордов, табулатур и нот


Carpathian - Who The Fuxk Taught You Snaps - бас-таба, видео

Регистрация Запомнить меня
Войти через:  Facebook Google Twitter Vk Yandex Mail.ru

Carpathian - Who The Fuxk Taught You Snaps - бас-таба, видео

Печатать
Просмотров: 116
Band:		CARPATHIAN
Song:		WHO THE FUCK TAUGHT YOU SNAPS?
Album/EP:		NOTHING TO LOSE 
Label:		RESIST RECORDS
Bassist:		CHRIS FARMER
Tuning:		Drop/Low B (EF#EB)

INTRO Part 1 x 2 (0.00)

G|---------------------------------------------------------|
D|---------------------------------------------------------|
A|-------------------------------------------66---33-------|
E|--1p0-00-0-00-0--1p0-00-0-00—1p0-00-0-00-0----0----------|

INTRO Part 2 x 2 

G|---------------------------------------------------------|
D|---------------------------------------------------------|
A|------------------------------------------66---33--------|
E|-0-0--0-00-00--0-0--0-00-00-0-0--0-00-00-----0-----------|

VERSE PART 1 x1

G|------------------------------------------|
D|------------------------------------------|
A|------------------------------------------|
E|-0-8-8-8-8--0-8-8-8-8---0-8-8-8-7-7-3-3---|

G|------------------------------------------|
D|------------------------------------------|
A|------------------------------------------|
E|-0-8-8-8-8--0-8-8-8-8---0-8-8-8-10-10-7-7-|

VERSE PART 2 x1

G|------------------------------------------|
D|------------------------------------------|
A|------------------------------------------|
E|-0-5-5-5-5--0-5-5-5-5---0-8-8-8-7-7-3-3---|

G|------------------------------------------|
D|------------------------------------------|
A|------------------------------------------|
E|-0-8-8-8-8--0-8-8-8-8---0-8-8-8-10-10-7-7-|

BRIDGE x4 

G|---------------------------------------|
D|---------------------------------------|
A|----------------------------------1-3--|
E|-0-00-1-0-00-0-131-0--00-1-0-00-1------|

CHORUS x2

G|-----------------------------------------------------------------------|
D|-----------------------------------------------------------------------|
A|-----------------5--7--8--10--8--7-8-----------------------------------|
E|-8-8--8--7-7-7-0--0--0---0--0--0--0--8-8--8--7-7--7-0-0-0-00-00-0-00-0-|


VERSE PART 1 x1

G|------------------------------------------|
D|------------------------------------------|
A|------------------------------------------|
E|-0-8-8-8-8--0-8-8-8-8---0-8-8-8-7-7-3-3---|

G|------------------------------------------|
D|------------------------------------------|
A|------------------------------------------|
E|-0-8-8-8-8--0-8-8-8-8---0-8-8-8-10-10-7-7-|

VERSE PART 2 x1

G|------------------------------------------|
D|------------------------------------------|
A|------------------------------------------|
E|-0-5-5-5-5--0-5-5-5-5---0-8-8-8-7-7-3-3---|

G|------------------------------------------|
D|------------------------------------------|
A|------------------------------------------|
E|-0-8-8-8-8--0-8-8-8-8---0-8-8-8-10-10-7-7-|

OUTRO Part 1 x1

G|---------------------------------------------------------|
D|---------------------------------------------------------|
A|---------------------------------------------------------|
E|-8-8--8--7-7--7--0-0-0-0-0-0--8-8--8--7-7--7-0-0-0-0-0-0-|

OUTRO Part 2 x 4

G|---------------------------------------|
D|---------------------------------------|
A|----------------------------------1-3--|
E|-0-00-1-0-00-0-131-0--00-1-0-00-1------|
Добавлено: 09.06.2012
Другие материалы по этой песне:
  • Аккорды и текст

Страница создана 09.06.2012
http://primanota.ru/carpathian/who-the-fuxk-taught-you-snaps-chords.htm
Привет, Гость.
Предлагаем пройти революционный курс по гитаре.
Подарок от PrimaNota.Ru, забирай!