PrimaNota.ru - самый крупный в мире бесплатный архив песенных текстов, аккордов, табулатур и нот


Carpathian Forest - The Swordsmen - текст песни, бас-таба, видео

Регистрация Запомнить меня
Войти через:  Facebook Google Twitter Vk Yandex Mail.ru

Carpathian Forest - The Swordsmen - текст песни, бас-таба, видео

Печатать
Просмотров: 68
Авторы: J. Nordavind

Tabbed by: 6METAL6BASSIST6
E-mail: petergriffinav@gmail.com

Tuning: EADG

My favorite Carpathian Forest song.

G|----------------------------------------------------------------|
D|----------------------------------------------------------------|
A|----------------------------------------------------------------|
E|0---------------------------------------------------------------|

G|----------------------------------------------------------------|
D|----------------------------------------------------------------|
A|--------------------------------------------------------7-\-----|
E|0-------------------------------0-------------------------------|

G|----------------------------------------------------------------|
D|----------------------------------------------------------------| x2
A|------5-6-6-6---------3-2-2-1---------5-6-6-6---------1-2---3---|
E|0---------------0---------------0---------------0---------------|

G|----------------------------------------------------------------|
D|----------------------------------------------------------------|
A|----------------5-4---3-----2-------------------1-2---3-----4---|
E|0-0-0-0-0-----------------------0-0-0-0-0-----------------------|

G|----------------------------------------------------------------|
D|----------------------------------------------------------------|
A|----------------5-4---3---3-2-------------------1-2---3-4-------|
E|0-0-0-0-0-----------------------0-0-0-0-0-0-0---------------0---|

0:23

G|----------------------------------------------------------------|.
D|----------------------------------------------------5-----------|.
A|------------------------------------------------3-------3-------|.
E|2-2-2-2-2-2-2-2-2-2-2-2-2-2-2-2-2-2-2-2-2-2-2-------------------|.
                                                                   . x2
G|----------------------------------------------------------------|.
D|----------------------------------------------------5-----------|.
A|------------------------------------3-----------3-------3-------|.
E|2-2-2-2-2-2-2-2-2-2-2-2-2-2-2---1-------1-------------------1---|.

G|----------------------------------------------------------------|
D|----------------------------------------------------5-----------|
A|------------------------------------------------3-------3-------|
E|2-2-2-2-2-2-2-2-2-2-2-2-2-2-2-2-2-2-2-2-2-2-2---------------1---|

G|----------------------------------------------------------------|
D|----------------------------------------------------5-----------|
A|------------------------------------3-----------3-------3-------|
E|2-2-2-2-2-2-2-2-2-2-2-2-2-2-2---1-------1-------------------1---|

G|----------------------------------------------------------------|
D|----------------------------------------------------5-----------|
A|------------------------------------------------3-------3-------|
E|2-2-2-2-2-2-2-2-2-2-2-2-2-2-2-2-2-2-2-2-2-2-2---------------1---|

G|----------------------------------------------------------------|
D|----------------------------------------------------------------|
A|----------------------------------------------------------------|
E|2-2-2-2-2-2-2-2-2-2-2-2-2-2-2---1---1---1---0-----------0-------|

G|------------------------------------------------------------------------------------------------|
D|------------------------------------------------------------------------------------------------|
A|------------------------------------------------------------------------------------7-\---------|
E|------------------------------------------------0-----------------------------------------------|

1:00

G|------------------------------------------------------------------------------------------------|
D|------------------------------------------------------------------------------------------------| x2
A|------------------------------------------------------------------------------------------------|
E|0-----3-0-0-0-----5-0-0-0-----6-0-0-6---6-6-----0-----3-0-0-0-----5-0-0-0-----6-0-0-6---6-6-----|

G|------------------------------------------------------------------------------------------------|
D|------------------------------------------------------------------------------------------------|
A|------------------------------------------------------------------------------------------------|
E|0-----3-0-0-0-----5-0-0-0---0-6-0-0-6---6-6-----0---0-3-0-0-0-----5-0-0-0---0-6-0-0-6---6-6-----|

G|--------------------------------|
D|--------------------------------|
A|--------------------------------|
E|0-------------------------------|

1:24

G|----------------------------------------------------------------|
D|----------------------------------------------------------------| x2
A|------5-6-6-6---------3-2-2-1---------5-6-6-6---------1-2---3---|
E|0---------------0---------------0---------------0---------------|

G|----------------------------------------------------------------|
D|----------------------------------------------------------------|
A|----------------5-4---3-----2-------------------1-2---3-----4---|
E|0-0-0-0-0-0-0-------------------0-0-0-0-0-0-0-------------------|

G|----------------------------------------------------------------|
D|----------------------------------------------------------------|
A|----------------5-4---3---3-2-------------------1-2---3-4-------|
E|0-0-0-0-0-0-0-------------------0-0-0-0-0-0-0---------------0---|

1:39

G|----------------------------------------------------------------|.
D|----------------------------------------------------5-----------|.
A|------------------------------------------------3-------3-------|.
E|2-2-2-2-2-2-2-2-2-2-2-2-2-2-2-2-2-2-2-2-2-2-2-------------------|.
                                                                   . x2
G|----------------------------------------------------------------|.
D|----------------------------------------------------5-----------|.
A|------------------------------------3-----------3-------3-------|.
E|2-2-2-2-2-2-2-2-2-2-2-2-2-2-2---1-------1-------------------1---|.

G|----------------------------------------------------------------|
D|----------------------------------------------------5-----------|
A|------------------------------------------------3-------3-------|
E|2-2-2-2-2-2-2-2-2-2-2-2-2-2-2-2-2-2-2-2-2-2-2---------------1---|

G|----------------------------------------------------------------|
D|----------------------------------------------------5-----------|
A|------------------------------------3-----------3-------3-------|
E|2-2-2-2-2-2-2-2-2-2-2-2-2-2-2---1-------1-------------------1---|

G|----------------------------------------------------------------|
D|----------------------------------------------------5-----------|
A|------------------------------------------------3-------3-------|
E|2-2-2-2-2-2-2-2-2-2-2-2-2-2-2-2-2-2-2-2-2-2-2---------------1---|

G|----------------------------------------------------------------|
D|----------------------------------------------------------------|
A|----------------------------------------------------------------|
E|2-2-2-2-2-2-2-2-2-2-2-2-2-2-2---1---1---1---0-----------0-------|

G|------------------------------------------------------------------------------------------------|
D|------------------------------------------------------------------------------------------------|
A|------------------------------------------------------------------------------------7-\---------|
E|------------------------------------------------0-----------------------------------------------|

2:16

G|------------------------------------------------------------------------------------------------|
D|------------------------------------------------------------------------------------------------| x2
A|------------------------------------------------------------------------------------------------|
E|0---0-3-0-0-0-----5-0-0-0---0-6-0-0-6---6-6-----0---0-3-0-0-0-----5-0-0-0---0-6-0-0-6---6-6-----|

G|------------------------------------------------------------------------------------------------|
D|------------------------------------------------------------------------------------------------|
A|------------------------------------------------------------------------------------------------|
E|0-----3-0-0-0-----5-0-0-0---0-6-0-0-6---6-6-----0---0-3-0-0-0-----5-0-0-0---0-6-0-0-6---6-6-----|

G|--------------------------------|
D|--------------------------------|
A|--------------------------------|
E|0-------------------------------|
 
2:57

G|----------------------------------------------------------------|
D|----------------------------------------------------------------|
A|----------------------------------------------------------------|
E|2---2---2---2---2---2---2---2---2---2---2---2---2---2---2-------|

G|----------------------------------------------------------------|
D|----------------------------------------------------------------|
A|----------------------------------------------------------------|
E|4---4---4---4---4---4---4---4---4---4---4---4---4---4---4-------|

G|----------------------------------------------------------------|
D|----------------------------------------------------------------|
A|----------------------------------------------------------------|
E|2---2---2---2---2---2---2---2---2---2---2---2---2---2---2-------|

G|----------------------------------------------------------------|
D|----------------------------------------------------------------|
A|--------------------------------1---1---1-------/---------------|
E|1---1---1---1---1---1---1---------------------------------------|

3:10

G|----------------------------------------------------------------|.
D|----------------------------------------------------------------|.
A|----------------1-------1-----------------------2-------2-------|.
E|2---2---2-----------------------2---2---2-----------------------|.
                                                                   .
G|----------------------------------------------------------------|.
D|----------------------------------------------------------------|.
A|----------------2-------2-----------------------2-------2-------|.
E|4---4---4-----------------------4---4---4-----------------------|.
                                                                   . x2
G|----------------------------------------------------------------|.
D|----------------------------------------------------------------|.
A|----------------1-------1-----------------------1-------1-------|.
E|2---2---2-----------------------2---2---2-----------------------|.
                                                                   .
G|----------------------------------------------------------------|.
D|----------------------------------------------------------------|.
A|----------------1-------1-----------------------1-------1-------|.
E|1---1---1-----------------------1---1---1-----------------------|.

3:35

G|----------------------------------------------------------------|.
D|----------------------------------------------------------------|.
A|----------------------------------------------------------------|.
E|2---2---2---2---2---2---2---2---2---2---2---2---2---2---2-------|.
                                                                   .
G|----------------------------------------------------------------|.
D|----------------------------------------------------------------|.
A|----------------------------------------------------------------|.
E|4---4---4---4---4---4---4---4---4---4---4---4---4---4---4-------|.
                                                                   . x2
G|----------------------------------------------------------------|.
D|----------------------------------------------------------------|.
A|----------------------------------------------------------------|.
E|2---2---2---2---2---2---2---2---2---2---2---2---2---2---2-------|.
                                                                   .
G|----------------------------------------------------------------|.
D|----------------------------------------------------------------|.
A|--------------------------------1---1---1---1---1---1---1-------|.
E|1---1---1---1---1---1---1---------------------------------------|.

G|----------------------------------------|
D|1---------------------------------------|
A|----------------------------------------|
E|----------------------------------------|
Добавлено: 23.11.2015
Другие материалы по этой песне:
  • Аккорды и текст

Страница создана 31.03.2012
http://primanota.ru/carpathian-forest/the-swordsmen-chords.htm
Привет, Гость.
Предлагаем пройти революционный курс по гитаре.
Подарок от PrimaNota.Ru, забирай!