PrimaNota.ru - самый крупный в мире бесплатный архив песенных текстов, аккордов, табулатур и нот


Carpathian Forest - Doomed To Walk The Earth As Slaves Of The Living Dead - бас-таба, видео

Регистрация Запомнить меня
Войти через:  Facebook Google Twitter Vk Yandex Mail.ru

Carpathian Forest - Doomed To Walk The Earth As Slaves Of The Living Dead - бас-таба, видео

Печатать
Просмотров: 95
Уроки эстрадного вокала в Санкт-Петербурге
Tabbed by: 6METAL6BASSIST6
E-mail: petergriffinav@gmail.com

Tuning: EADG

G|------------------------------------------------------------------------------------------------|
D|------------------------------------------------------------------------------------------------| x6
A|--------------------4-----------------------------------------------4-----------------/-6---5---|
E|1-------1---0-/-6-------1-------1---0-/-6---5---1-------1---0-/-6-------1-------1---0-----------|

G|------------------------------------------------------------------------------------------------|
D|------------------------------------------------------------------------------------------------|
A|------------------------------------------------------------------------------------------------|
E|------------------------------------0-----3-----------------------------------------0-----3-----|

0:38

G|------------------------------------------------------------------------------------------------|
D|------------------------------------------------------------------------------------------------|
A|------------------------------------------------------------------------------------------------|
E|4-----4-----4-----4-----4-----4-----0-----3-----4-----4-----4-----4-----4-----4-----0-----3-----|

G|------------------------------------------------------------------------------------------------|
D|------------------------------------------------------------------------------------------------| x2
A|------------------------------------------------------------------------------------7---6---5---|
E|6-----6-----6-----6-----6-----6-----6---5---4---6-----6-----6-----6-----6-----6-----------------|

G|------------------------------------------------------------------------------------------------|
D|------------------------------------------------------------------------------------------------| x2
A|------------------------------------1-----4-----------------------------------------1-----4-----|
E|0-----0-----0-----0-----0-----0-----------------0-----0-----0-----0-----0-----0-----------------|

1:03

G|------------------------------------------------------------------------------------------------|
D|------------------------------------------------------------------------------------------------| x2
A|------------------------------------------------------------------------------------------------|
E|4-----4-----4-----4-----4-----4-----0-----3-----4-----4-----4-----4-----4-----4-----0-----3-----|

G|------------------------------------------------------------------------------------------------|
D|------------------------------------------------------------------------------------------------| x2
A|------------------------------------------------------------------------------------7---6---5---|
E|6-----6-----6-----6-----6-----6-----6---5---4---6-----6-----6-----6-----6-----6-----------------|

G|----------------------------------------------------------------|
D|----------------------------------------------------------------|
A|----------------------------------------------------------------|
E|----------------------------------------------------------------|

G|----------------------------------------------------------------|
D|----------------------------------------------------------------|
A|----------------------------------------------------------------|
E|----------------------------------------------------------------|

1:31

G|----------------------------------------------------------------|.
D|----------------------------------------------------------------|.
A|--------5-------6---------------3-------2-----------------------|.
E|0-----------------------0-----------------------1-------4-------|.
                                                                   . x4
G|----------------------------------------------------------------|.
D|--------------------------------------------------------4-------|.
A|--------5-------6---------------3-------2-----------------------|.
E|0-----------------------0-----------------------1---------------|.

1:52

G|--------------------------------------------------------|
D|--------------------------------------------------------| x2
A|----------------------------------------1---------------|
E|0---------------1---4---0-------------------------------|

G|------------------------------------------------------------------------------------------------|
D|------------------------------------------------------------------------------------------------|
A|------------------------------------------------------------------------------------------------|
E|4-----------------------------------0-----3-----------------------------------------0-----3-----|

2:06

G|------------------------------------------------------------------------------------------------|
D|------------------------------------------------------------------------------------------------|
A|------------------------------------------------------------------------------------------------|
E|4-----4-----4-----4-----4-----4-----0-----3-----4-----4-----4-----4-----4-----4-----0-----3-----|

G|------------------------------------------------------------------------------------------------|
D|------------------------------------------------------------------------------------------------| x2
A|------------------------------------------------------------------------------------7---6---5---|
E|6-----6-----6-----6-----6-----6-----6---5---4---6-----6-----6-----6-----6-----6-----------------|

G|------------------------------------------------------------------------------------------------|
D|------------------------------------------------------------------------------------------------| x2
A|------------------------------------1-----4-----------------------------------------1-----4-----|
E|0-----0-----0-----0-----0-----0-----------------0-----0-----0-----0-----0-----0-----------------|

G|------------------------------------------------------------------------------------------------|
D|------------------------------------------------------------------------------------------------| x2
A|------------------------------------------------------------------------------------------------|
E|4-----4-----4-----4-----4-----4-----0-----3-----4-----4-----4-----4-----4-----4-----0-----3-----|

2:44

G|------------------------------------------------------------------------------------------------|
D|------------------------------------------------------------------------------------------------| x4
A|--------------------4-----------------------------------------------4-----------------/-6---5---|
E|1-------1---0-/-6-------1-------1---0-/-6---5---1-------1---0-/-6-------1-------1---0-----------|

G|------------------------------------------------------------|
D|------------------------------------------------------------|
A|1-----2-----------------------------------------------------|
E|------------------------------------------------1-----0-----|
Добавлено: 23.11.2015
Другие материалы по этой песне:
  • Аккорды и текст

Страница создана 23.11.2015
http://primanota.ru/carpathian-forest/doomed-to-walk-earth-as-slaves-of-living-dead-chords.htm
Привет, Гость.
Предлагаем пройти революционный курс по гитаре.
Подарок от PrimaNota.Ru, забирай!