PrimaNota.ru - самый крупный в мире бесплатный архив песенных текстов, аккордов, табулатур и нот


Carpathian Forest - Death Triumphant - текст песни, таба, видео

Регистрация Запомнить меня
Войти через:  Facebook Google Twitter Vk Yandex Mail.ru

Carpathian Forest - Death Triumphant - текст песни, таба, видео

Печатать
Просмотров: 144
Авторы: J. Nordavind

----------------------------------------------------------------------------
			     DEATH TRIUMPHANT - Carpathian Forest
----------------------------------------------------------------------------
Tabbed by:	Sickgod
Email:		rmehalwal@gmail.com

Tuning:	E A D G B E [Standard Tuning]




|--------------------------------------------------------|
|--------------------------------------------------------|
|--------------------------------------------------------|
|--------------------------------------------------------|	RIFF1
|--7--7--7--6-7----------3-7-7--8-11-11------------------|
|--5--5--5--4-5-5-4-3-2--1-5-5--6-9--9-------------------|


|--------------------------------------------------------|
|--------------------------------------------------------|
|--------------------------------------------------------|
|--------------------------------------------------------|	RIFF2
|--7--7--7--6-7----------3-7-7--8-11-11--7---------------|
|--5--5--5--4-5-5-4-3-2--1-5-5--6-9--9---4---------------|


|--------------------------------------------------------|
|------5-------------------------------------------------|
|----5--------5------------------------------------------|	RIFF3
|--7------6-7--------------------------------------------|	
|------------------------3-7-7--8------------------------|
|---------------5-4-3-2--1-5-5--6-9-9--------------------|


|--------------------------------------------------------|
|--------------------------------------------------------|
|--------------------------------------------------------|	RIFF4
|--------------------------------------------------------|
|----10-9-10---10-9-10---10-9------10-9------------------|
|--7---------7---------7------10-7------10---------------|


|--------------------------------------------------------|
|--------------------------------------------------------|
|--------------------------------------------------------|	RIFF5
|--------------------------------------------------------|
|------10-9-10-----10-9-10-----10-9--------10-9----------|
|--7-7---------7-7---------7-7------10-7-7------10-------|


|--------------------------------------------------------|
|--------------------------------------------------------|
|--------------------------------------------------------|	RIFF6
|--------------------------------------------------------|
|--4--3--4--3---2--3--2--3-------------------------------|
|--2--1--2--1---0--1--0--1-------------------------------|


|--------------------------------------------------------|
|--------------------------------------------------------|
|--------------------------------------------------------|	RIFF7
|--------------------------------------------------------|
|-----3b----3b----2b----2b-------------------------------|
|---2-----2-----1-----1----------------------------------|


|--------------------------------------------------------|
|--------------------------------------------------------|
|--------------------------------------------------------|	RIFF8
|--------------------------------------------------------|
|--4-4-4-4-4--4-4-4-4-4--3-3-3-3-3--3-3-3-2--------------|
|--2-2-2-2-2--2-2-2-2-2--1-1-1-1-1--1-1-1-0--------------|


|--------------------------------------------------------|
|--------------------------------------------------------|
|--------------------------------------------------------|	RIFF9
|--------------------------------------------------------|
|--3-2-2-2--3-2-2-2--3-3-3-3-3--3-3-3-3-2----------------|
|--1-0-0-0--1-0-0-0--1-1-1-1-1--1-1-1-1-0----------------|



SEQUENCE

	RIFF1 + RIFF3		X	5
	RIFF2 + RIFF3		X	1
	RIFF4			X	2
	RIFF5			X	6
	RIFF6			X	3
	RIFF7			X	8

	RIFF8			X	2	Play this combination of
	RIFF9			X	2	riff8 & 9 5 times and fade
                                                out




============================================================================
| /  slide up
| \  slide down
| h  hammer-on
| p  pull-off
| ~  vibrato
| +  harmonic
| x  Mute note
============================================================================
Добавлено: 05.06.2012
Другие материалы по этой песне:
  • Аккорды и текст

Страница создана 22.04.2012
http://primanota.ru/carpathian-forest/death-triumphant-chords.htm
Привет, Гость.
Предлагаем пройти революционный курс по гитаре.
Подарок от PrimaNota.Ru, забирай!