PrimaNota.ru - самый крупный в мире бесплатный архив песенных текстов, аккордов, табулатур и нот


Carpathian Forest - Carpathian Forest - текст песни, таба, бас-таба, видео

Регистрация Запомнить меня
Войти через:  Facebook Google Twitter Vk Yandex Mail.ru

Carpathian Forest - Carpathian Forest - текст песни, таба, бас-таба, видео

Печатать
Просмотров: 290
----------------------|--------------------|----------------------|---------|
----------------------|--------------------|----------------------|---------|
------------16--------|---L----------------|--13------------------|---------|
--15------------------|--------------------|------------15--------|-L-13----|
----------------------|--------------------|----------------------|------14-|
----------------------|--------------------|----------------------|---------|


--------------------|----------------------------|--------------------|---------------------||
--------------------|----------------------18----|--------------------|---------------------||
--------------------|--15--16--15----------------|--17----------------|---------------------||
--15----------------|--------------15------------|--------------------|-16----15------------||
--------------------|----------------------------|--------------------|---------------------||
--------------------|----------------------------|--------------------|---------------------||

It's just my opinion, but i think it's right and i didn't find any other existing tab of 
:D. Jari Valesin
Добавлено: 25.07.2012
Другие материалы по этой песне:

Страница создана 25.05.2012
http://primanota.ru/carpathian-forest/carpathian-forest-chords.htm
Привет, Гость.
Предлагаем пройти революционный курс по гитаре.
Подарок от PrimaNota.Ru, забирай!