PrimaNota.ru - самый крупный в мире бесплатный архив песенных текстов, аккордов, табулатур и нот


Carpathian Forest - A World Of Bones - текст песни, бас-таба, видео

Регистрация Запомнить меня
Войти через:  Facebook Google Twitter Vk Yandex Mail.ru

Carpathian Forest - A World Of Bones - текст песни, бас-таба, видео

Печатать
Просмотров: 104
Tabbed by: 6METAL6BASSIST6
E-mail: petergriffinav@gmail.com

Tuning: EADG

G|----------------------------------------------------------------|
D|----------------------------------------------------------------|
A|----------------------------------------------------------------|
E|------------------------3---3---------------------------1---1---|

G|----------------------------------------------------------------|
D|----------------------------------------------------------------|
A|----------------------------------------------------------------|
E|------------------------3---3---------------------------1-------|

G|----------------------------------------------------------------|
D|----------------------------------------------------------------|
A|----------------------------------------------------------------|
E|0-----------------------1-------0-----------------------1-------|

G|----------------------------------------------------------------|
D|----------------------------------------------------------------| x2
A|------------2---3---------------------------2---3---------------|
E|0-----------------------3-------0-----------------------1-------|

G|----------------------------------------------------------------|
D|----------------------------------------------------------------|
A|------------2---3---------------------------2---3---------------|
E|0-----------------------1-------0-----------------------3-------|

0:26

G|----------------------------------------------------------------|
D|----------------------------------------------------------------| x2
A|------------2---3---------------------------2---3---------------|
E|0-----------------------3-------0-----------------------1-------|

G|----------------------------------------------------------------|
D|----------------------------------------------------------------|
A|------------2---3---------------------------2---3---------------|
E|0-----------------------1-------0-----------------------1-------|

G|----------------------------------------------------------------|
D|----------------------------------------------------------------|
A|------------2---3---------------------------2---3---------------|
E|0-----------------------3-------0-----------------------1-------|

0:44

G|----------------------------------------------------------------|
D|----------------------------------------------------------------|
A|------------2---3---------------------------2---3---------------|
E|0-----------------------3-------0-----------------------1-------|

G|----------------------------------------------------------------|
D|----------------------------------------------------------------|
A|------------2---3---------------------------2---3---------------|
E|0-----------------------1-------0-----------------------3-------|

G|----------------------------------------------------------------|
D|----------------------------------------------------------------| x2
A|------------2---3---------------------------2---3---------------|
E|0-----------------------3-------0-----------------------1-------|

G|----------------------------------------------------------------|
D|----------------------------------------------------------------|
A|------------2---3---------------------------2---3---------------|
E|0-----------------------1-------0-----------------------1-------|

1:05

G|------------------------------------------------------------------------------------------------|.
D|------------------------------------------------------------------------------------------------|.
A|------------2-----------------------2-----------------------2-----------------------2-----------|.
E|0-----------------------0-----------------------0-----------------------0-----------------------|.
                                                                                         
          . x2
G|------------------------------------------------------------------------------------------------|.
D|------------------------------------------------------------------------------------------------|.
A|------------3-----------------------3-----------------------------------------------1-----------|.
E|0-----------------------0-----------------------3-----------3-----------3-----------------------|.

1:28

G|------------------------------------------------------------------------------------------------|
D|------------------------------------------------------------------------------------------------|
A|--------------------2-----------------------2-----------------------2-----------------------2---|
E|0-----------3-----------0-----------3-----------0-----------3-----------0-----------3-----------|

G|------------------------------------------------------------------------------------------------|
D|------------------------------------------------------------------------------------------------|
A|3-----------3-----------0-----------0-----------2-----------2-----------3-----------3-------2---|
E|------------------------------------------------------------------------------------------------|

1:56

G|------------------------------------------------------------------------------------------------|
D|------------------------------------------------------------------------------------------------|
A|------------2-----------------------2-----------------------2-----------------------2-----------|
E|0-----------------------0-----------------------0-----------------------0-----------------------|

G|------------------------------------------------------------------------------------------------|
D|------------------------------------------------------------------------------------------------|
A|------------3-----------------------3-----------------------------------------------1-----------|
E|0-----------------------0-----------------------3-----------3-----------3-----------------------|

G|------------------------------------------------------------------------------------------------|
D|------------------------------------------------------------------------------------------------|
A|------------2-----------------------2-----------------------2-----------------------2-----------|
E|0-----------------------0-----------------------0-----------------------0-----------------------|

G|----------------------------------------------------------------------------------------------------|
D|----------------------------------------------------------------------------------------------------|
A|------------3-----------------------3-----------------------------------------------1---------------|
E|0-----------------------0-----------------------3-----------3-----------3---------------------------|

2:20

G|----------------------------------------------------------------|
D|----------------------------------------------------------------|
A|----------------------------------------------------------------|
E|0---------------------------------------------------------------|



2:40

G|----------------------------------------------------------------|
D|----------------------------------------------------------------|
A|----------------------------------------------------------------|
E|0---------------------------------------------------------------|

G|----------------|
D|----------------|
A|2---/-----------|
E|----------------|

2:48

G|------------------------------------------------------------------------------------------------|
D|------------2-----------------------2-----------------------2-----------------------2-----------|
A|1---2-------------------------------------------1---2-----------------------------------2/3-3---|
E|--------------------3---0-------------------3-----------------------3---0-----------------------|

G|------------------------------------------------------------------------------------------------|
D|------------2-----------------------2-----------------------2-----------------------2-----------|
A|1---2-------------------------------------------1---2-----------------------------------2/6-6---|
E|--------------------3---0-------------------3-----------------------3---0-----------------------|

G|------------------------------------------------------------------------------------------------|
D|------------2-----------------------2-----------------------2-----------------------------------|
A|1---2-----------------------------------6/2-2---1---2-----------------------------------6-\-----|
E|--------------------3---0-------------------------------------------3---0-----------------------|

3:37

G|------------------------------------------------------------------------------------------------|
D|------------------------------------------------------------------------------------------------| x6
A|--------------------------------------------1---------------------------------------------------|
E|0-------3---2---3---2---0-------3---2-----------0-------3---2---3---2---0-------3---2-------1---|

G|------------------------------------------------------------------------------------------------|
D|------------------------------------------------------------------------------------------------|
A|------------------------------------------------------------------------------------------------|
E|0-----------------------------------------------------------------------------------------------|
Добавлено: 23.11.2015
Другие материалы по этой песне:

Страница создана 20.05.2012
http://primanota.ru/carpathian-forest/a-world-of-bones-chords.htm
Привет, Гость.
Предлагаем пройти революционный курс по гитаре.
Подарок от PrimaNota.Ru, забирай!