PrimaNota.ru - самый крупный в мире бесплатный архив песенных текстов, аккордов, табулатур и нот


Carpark North - Save Me From Myself - аккорды и текст, таба, видео

Регистрация Запомнить меня
Войти через:  Facebook Google Twitter Vk Yandex Mail.ru

Carpark North - Save Me From Myself - аккорды и текст, таба, видео

Печатать
Просмотров: 358
Save Me From Myself
Carpark North
Save Me From Myself - Carpark North.

Nødvendige akkorder:
B/g#(no3):      B(no3):            F#:            E:            B:
E||--4--||      E||--x--||      E||--2--||      E||--0--||      E||--x--||      
A||--x--||      A||--2--||      A||--4--||      A||--2--||      A||--2--||
D||--4--||      D||--4--||      D||--4--||      D||--2--||      D||--4--||
G||--4--||      G||--4--||      G||--3--||      G||--1--||      G||--4--||
B||--0--||      B||--0--||      B||--2--||      B||--0--||      B||--4--||
E||--2--||      E||--2--||      E||--2--||      E||--0--||      E||--2--||

Ebm:            B/C#(no3):
E||--x--||      E||--x--||
A||--6--||      A||--4--||
D||--8--||      D||--4--||
G||--8--||      G||--4--||
B||--7--||      B||--0--||
E||--6--||      E||--2--||


Intro: ||:B/g#(no3)|B(no3)|F#|E:||
      Q    Q    Q    Q       Q     Q     Q     Q        Q    Q    Q    Q     
E||---2----L----2----L----|--2-----L-----2-----L-----|--2----L----2----L----|
B||---0----L----0----L----|--0-----L-----0-----L-----|--2----L----2----L----|
G||*--4----L----4----L----|--4----(4)----4----(4)----|--3----L----3----L----|
D||*--4----L----4----L----|--4-----4-----4-----4-----|--4----L----4----L----|
A||-----------------------|--2-----2-----2-----2-----|--4----L----4----L----|
E||---4----4----L----4----|--------------------------|--2----2----L----2----|

  E  E   Q     Q    Q       
--0--L---0-----0----0-----||
--0--0---0-----2----0-----||
--1--3---1-----1----1----*||
--2--2---2-----2----2----*||
--2--L---2-----L----L-----||
--0--L--(0)----L----L-----||


1. Vers:
Abm      B                F#
Lost, my heart is hard as stone,
E     Abm   B       F#       E
on my own, alone, I carry it home.
Abm     B                 F#
Gone, I used to waste the days,
E     Abm        B             F#          E        B/G#(no3)
so distraught, I thought: "I'm changing my ways".
B(no3)     F#          E
Now you're changing my ways.


OmkvæD:
    B(no3)
You save me, save me from myself.
         Abm    E        B    F#
There is no one else I'd lean on.
Ebm                  E      Abm
Save me, you save me from myself.
         E              Abm7 F# B(no3)
There is no one else to set  me free.


Mellemstykke:      ||B/g#(no3)|B(no3)|F#|E||


2. Vers:
Abm        B                  F#
Start, the start of something new
   E      Abm        B        F#         E
is what I find, when I'm just looking at you.
Abm       B               F#
Lift, you lift me off the ground,
     E          Abm           B           F#        B
keep holding my hand, I won't land, won't even look down.
B                B
Don't look down! Don't look down!


OmkvæD:
    B(no3)
You save me, save me from myself.
         Abm    E        B    F#
There is no one else I'd lean on.
Ebm                  E      Abm
Save me, you save me from myself.
         E              Abm7 F# B
There is no one else to set  me free.


C-Stykke:
       E  E  E  E  E  E  E  E     E  E  E  E  E  E  E  E   
E||---1--1--------1--1--------|--1--1--------1--1--------|
B||---------0--0--------0--0--|--------0--0--------0--0--|
G||*--------------------------|--------------------------|
D||*--------------------------|--------------------------|
A||---------------------------|--------------------------|
E||---------------------------|--------------------------|

  E  E  E  E  E  E  E  E     E  E  E  E  E  E  E  E   
--2--2--------2--2--------|--2--2--------2--2--------|
--------0--0--------0--0--|--------0--0--------0--0--|
--------------------------|--------------------------|
--------------------------|--------------------------|
--------------------------|--------------------------|
--------------------------|--------------------------|

  E  E  E  E  E  E  E  E     E  E  E  E  E  E  E  E   
--6--6--------6--6--------|--6--6--------6--6--------|
--------0--0--------0--0--|--------0--0--------0--0--|
--------------------------|--------------------------|
--------------------------|--------------------------|
--------------------------|--------------------------|
--------------------------|--------------------------|

  E  E  E  E  E  E  E  E     E  E  E  E  E  E  Q       
--7--7--------7--7--------|--7--7--------7-----7-----||
--------6--6--------6--6--|--------6--6-----6--------||
--------------------------|-------------------------*||
--------------------------|-------------------------*||
--------------------------|--------------------------||
--------------------------|--------------------------||

  E  E  E  E  E  E  E  E     E  E  E  E  E  E  E  E   
--1--1--------1--1--------|--1--1--------1--1--------|
--------0--0--------0--0--|--------0--0--------0--0--|
--------------------------|--------------------------|
--------------------------|--------------------------|
--------------------------|--------------------------|
--------------------------|--------------------------|

  E  E  E  E  E  E  E  E     E  E  E  E  E  E  E  E   
--2--2--------0--0--------|--------------------------|
--------------------------|--4--4--------2--2--------|
--------4--4--------4--4--|--------4--4--------4--4--|
--------------------------|--------------------------|
--------------------------|--------------------------|
--------------------------|--------------------------|

  E  E  E  E  E  E  E  E     E  E  E  E  E  E  E  E    
--2--2--------0--0--------|--------------------------||
--------------------------|--4--4--------2--2--------||
--------4--4--------4--4--|--------4--4--------4--4--||
--------------------------|--------------------------||
--------------------------|--------------------------||
--------------------------|--------------------------||

Omkvæd:
    B(no3)           B/C#(no3)
You save me, save me from myself.
         Abm    E        B    F#
There is no one else I'd lean on.
Ebm                  E      Abm
Save me, you save me from myself.
         E              Abm7 F# B
There is no one else to set  me free.
Добавлено: 05.03.2012
Другие материалы по этой песне:
  • Аккорды и текст

Страница создана 05.03.2012
http://primanota.ru/carpark-north/save-me-from-myself-chords.htm
Привет, Гость.
Предлагаем пройти революционный курс по гитаре.
Подарок от PrimaNota.Ru, забирай!