PrimaNota.ru - самый крупный в мире бесплатный архив песенных текстов, аккордов, табулатур и нот


Carpark North - Human - текст песни, таба, видео

Регистрация Запомнить меня
Войти через:  Facebook Google Twitter Vk Yandex Mail.ru

Carpark North - Human - текст песни, таба, видео

Печатать
Просмотров: 179
Title: Human
Artist: Carpark North
Album: All Things To All People

Tabbed by: John Wika Haaketh (johnwika@gmail.com) 
http://milhouse86.blogspot.com

Tuning: Standard (E A D G B E)

Okey, the intro IS played by a keyboard, so please. 
With the chorus and bridge you'll just have 
to listen to the song for the right rhythm and 
number of strokes... guess that goes for the whole
song. 



Keaboard intro:

E|-11-11--10--10--11-11-11-10------||
B|-11-11--11--11--11-11-11-11------||
G|-12-12--10--10--12-12-12-10------||
D|---------------------------------||
A|---------------------------------||
E|---------------------------------||

guess this part really is done by a bass:
E|-------------------------------------------------------------------||
B|-------------------------------------------------------------------||
G|-------------------------------------------------------------------||
D|-----------------------------------------6-6--6-6-6--6-6-6--6--6\--||
A|-3-3-3--3--3--6-6--6-6-6-6--3-3-3--3--3----------------------------||
E|-------------------------------------------------------------------||


Verse:

E|---------------------------------||
B|---------------------------------||
G|---------------------------------||
D|-----5------5-------5------5-----||
A|---------------------------------||
E|-3-3-----3-------3-----3-3-------|| x4


E|-------------------------------------------------------------------||
B|-------------------------------------------------------------------||
G|-------------------------------------------------------------------||
D|-5-5-5--5-5---8-8--8-8-8--5-5-5--5-5-------------------------------||
A|-3-3-3--3-3---6-6--6-6-6--3-3-3--3-3---8-8--8-8-8--8-8-8--8--------||
E|---------------------------------------6-6--6-6-6--6-6-6--6--------||


Chorus:

E|--------------------------------------------------------------------------------------------||
B|--------------------------------------------------------------------------------------------||
G|-8-8-8-8-8-8-8-10101012-12-12-12-12-12-12-141414-15-15-15-15-15-15-15-15-19-19-19-19-(22)---||
D|--------------------------------------------------------------------------------------------||
A|-6-6-6-6-6-6-6-8-8-8-10-10-10-10-10-10-10-121212-13-13-13-13-13-13-13-13-17-17-17-17--------||
E|--------------------------------------------------------------------------------------------|| x2

Bridge (keyboard)
E|--------------------------------------------------------------------------------------------||
B|--------------------------------------------------------------------------------------------||
G|-8-8-8-8-8-8-8-10101012-12-12-12-12-12-12-141414-15-15-15-15-15-15-15-15-19-19-19-19-22-22--||
D|--------------------------------------------------------------------------------------------||
A|--------------------------------------------------------------------------------------------||
E|--------------------------------------------------------------------------------------------||
Добавлено: 25.03.2012
Другие материалы по этой песне:

Страница создана 22.03.2012
http://primanota.ru/carpark-north/human-chords.htm
Привет, Гость.
Предлагаем пройти революционный курс по гитаре.
Подарок от PrimaNota.Ru, забирай!