PrimaNota.ru - самый крупный в мире бесплатный архив песенных текстов, аккордов, табулатур и нот


Carousel Kings - Maxs Song - аккорды и текст, таба, видео

Регистрация Запомнить меня
Войти через:  Facebook Google Twitter Vk Yandex Mail.ru

Carousel Kings - Maxs Song - аккорды и текст, таба, видео

Печатать
Просмотров: 176
Maxs Song
Carousel Kings
Here are the chords to "Max's Song (Acoustic)." Enjoy

Capo 1

      G    C    F    A       F    C    F    A       F    F    F    G            
E||---3-------------------|--1-------------------|--1----3----1----3-----||
B||---3-------------------|--1-------------------|--1----x----x----3-----||
G||*--0----0---------2----|--2----0---------2----|--2----x----x----0----*||
D||*--0----2----3----2----|--3----2----3----2----|--3----3----x----0----*||
A||---2----3----3----0----|--3----3----3----0----|--3----3----3----2-----||
E||---3---------1---------|--1---------1---------|--1----1----1----3-----||


  C (Open)                                       C (Open) F  G    
--0----------------|--0--0---0---0---0---0--||---0--------1--3--|
--1----------------|--1----2---2---3---2----||---1--------1--0--|
--0----------------|--0---------------------||*--0--------2--0--|
--2----------------|--2---------------------||*--2--------3--0--|
--3----------------|--3---------------------||---3--------3--2--|
--x----------------|--x---------------------||------------1--3--|


  G          F  G     F       C (Open)            C  F  A     G  A  G  B5 A     
--3--1-------------|--1---||--0----------------|--0--1--0--|--3--0--3--2--0--|
--0--1-------------|--1---||--1----------------|--1--1--2--|--0--2--0--4--2--|
--0--2-------2-----|--2--*||--0----------------|--0--2--2--|--0--2--0--4--2--|
--0--3-------3--5--|--3--*||--2----------------|--2--3--2--|--0--2--0--4--2--|
--2--3-------3--5--|--3---||--3----------------|--3--3--0--|--2--0--2--2--0--|
--3--1-------1--3--|--1---||--x----------------|-----1-----|--3-----3--------|


  "(To) stop this"                                        
  F                   C (Open)            C  F  A     F    
--1----------------|--0----------------|-----------|--1--|
--1----------------|--1----------------|-----------|--1--|
--2----------------|--0----------------|--0-----2--|--2--|
--3----------------|--2----------------|--2--3--2--|--3--|
--3----------------|--3----------------|--3--3--0--|--3--|
--1----------------|--x----------------|-----1-----|--1--|


  C (Open)                           F                           
--0--------0-----0--0-0-0--0-0-0--|--1--1-----1--1-1-1--1-1-1--|
--1--------0-----0--0-0-0--0-0-0--|--1--1-----1--1-1-1--1-1-1--|
--0--------0-----0--0-0-0--0-0-0--|--2--2-----2--2-2-2--2-2-2--|
--2--------2-----2--2-2-2--2-2-2--|--3--3-----3--3-3-3--3-3-3--|
--3--------3-----3--3-3-3--3-3-3--|--3--3-----3--3-3-3--3-3-3--|
--x--------x-----x--x-x-x--x-x-x--|--1--1-----1--1-1-1--1-1-1--|


              A       G                C (Open)            F                                     
--1--1-----1--0-0-0--(3)-(3)-(3)--||---0----------------|--1-----------------||
--1--1-----1--2-2-2---3---3---3---||---1----------------|--1-----------------||
--2--2-----2--2-2-2---0---0---0---||*--0----------------|--2----------------*||
--3--3-----3--2-2-2---0---0---0---||*--2----------------|--3----------------*||
--3--3-----3--0-0-0---2---2---2---||---3----------------|--3-----------------||
--1--1-----1----------3---3---3---||---x----------------|--1-----------------||


  "This is who I am"           
  C (Open)              F         
--0------------------|--1----||
--1------------------|--1----||
--0------------------|--2----||
--2------------------|--3----||
--3------------------|--3----||
--x------------------|--1----||
Добавлено: 26.06.2013
Вам также может быть интересно:
Другие материалы по этой песне:
  • Аккорды и текст

Страница создана 26.06.2013
http://primanota.ru/carousel-kings/maxs-song-chords.htm
Привет, Гость.
Предлагаем пройти революционный курс по гитаре.
Подарок от PrimaNota.Ru, забирай!