PrimaNota.ru - самый крупный в мире бесплатный архив песенных текстов, аккордов, табулатур и нот


Carolines Spine - Turned Blue - текст песни, таба, видео

Регистрация Запомнить меня
Войти через:  Facebook Google Twitter Vk Yandex Mail.ru

Carolines Spine - Turned Blue - текст песни, таба, видео

Печатать
Просмотров: 109
Turned Blue
Caroline's Spine

Tabbed by John Flemings
Prevost3000@netscape.net
With help from Mark Haugh's tab found on the internet
Standard tuning half step down.
*=STOP NOTE


    HEAVY DISTORTION  AND PALM MUTES                                
Eb :--------------------|------------------|------------------|
Bb :--------------------|------------------|------------------|
Gb :--------------------|------------------|------------------|
Db :--------------------|------------------|------------------|
Ab :--------------------|------------------|------------------|
Eb :3-0-0-*--------3-3-3|3-0-0-*-----------|3-0-0-*-----------|
                                                              

                    V O CALS START H E R E   :  VERSE 1     
Eb :----------------|--------------------|------------------|
Bb :----------------|--------------------|------------------|
Gb :5---------------|*-------------------|------------------|
Db :5---------------|*-------------------|------------------|
Ab :3---------------|*-------------------|------------------|
Eb :----------------|3-0-0-*--------3-3-3|3-0-0-*-----------|
                    l e t me tell yo u   s o methin bout my 

                                                            
Eb :------------------|----------------|--------------------|
Bb :------------------|----------------|--------------------|
Gb :------------------|5--------------*|--------------------|
Db :------------------|5--------------*|--------------------|
Ab :------------------|3--------------*|--------------------|
Eb :3-0-0-*-----------|----------------|3-0-0-*--------3-3-3|
   s e lf.......                                            

                                         PRECHORUS        
Eb :------------------|------------------|----------------|
Bb :------------------|------------------|----------------|
Gb :------------------|------------------|5-5-5-5-5-5-5-5-|
Db :------------------|------------------|5-5-5-5-5-5-5-5-|
Ab :------------------|------------------|3-3-3-3-3-3-3-3-|
Eb :3-0-0-*-----------|3-0-0-*-----------|----------------|
                                     ... turn to...turn t 

                    CHO R U S                    
Eb :----------------|----------------------------|
Bb :----------------|----------------------------|
Gb :7-7-7-7-7-7-7-7-|*---------------------------|
Db :7-7-7-7-7-7-7-7-|*---------------------------|
Ab :5-5-5-5-5-5-5-5-|*-9-9-9-7-------9-9-9-7-----|
Eb :----------------|0-*-------7-0*0-*-------7-0*|
   o.....                                        

   


                                                    
Eb :-----------------------|---------------------------|
Bb :-----------------------|---------------------------|
Gb :--------------5---*----|---------------------------|
Db :--------------5---7----|*--------------------------|
Ab :--9-9-9-7-----3---7----|*-9-9-9-7-------9-9-9-7----|
Eb :0-*-------7-0-----5----|0-*-------7-0*0-*-------7-0|
                                                       

                                                                   
Eb :-----------------------|--------------------|------------------|
Bb :-----------------------|--------------------|------------------|
Gb :---------------5---*---|--------------------|------------------|
Db :---------------5---7---|*-------------------|------------------|
Ab :---9-9-9-7-----3---7---|*-------------------|------------------|
Eb :*0-*-------7-0-----5---|3-0-0-*--------3-3-3|3-0-0-*-----------|
                                                                   

                                                            
Eb :------------------|----------------|--------------------|
Bb :------------------|----------------|--------------------|
Gb :------------------|5---------------|*-------------------|
Db :------------------|5---------------|*-------------------|
Ab :------------------|3---------------|*-------------------|
Eb :3-0-0-*-----------|----------------|3-0-0-*--------3-3-3|
                                                            

                                                          
Eb :------------------|------------------|----------------|
Bb :------------------|------------------|----------------|
Gb :------------------|------------------|5--------------*|
Db :------------------|------------------|5--------------*|
Ab :------------------|------------------|3--------------*|
Eb :3-0-0-*-----------|3-0-0-*-----------|----------------|
                                                          

                                                              
Eb :--------------------|------------------|------------------|
Bb :--------------------|------------------|------------------|
Gb :--------------------|------------------|------------------|
Db :--------------------|------------------|------------------|
Ab :--------------------|------------------|------------------|
Eb :3-0-0-*--------3-3-3|3-0-0-*-----------|3-0-0-*-----------|
                                                          ... 

   PRECHORUS                         CHO R U S                   
Eb :----------------|----------------|---------------------------|
Bb :----------------|----------------|---------------------------|
Gb :5-5-5-5-5-5-5-5-|7-7-7-7-7-7-7-7-|*--------------------------|
Db :5-5-5-5-5-5-5-5-|7-7-7-7-7-7-7-7-|*--------------------------|
Ab :3-3-3-3-3-3-3-3-|5-5-5-5-5-5-5-5-|*-9-9-9-7-------9-9-9-7----|
Eb :----------------|----------------|0-*-------7-0*0-*-------7-0|
   turn to...turn t o.....                                       

                                                      
Eb :-----------------------|--------------------------|
Bb :-----------------------|--------------------------|
Gb :---------------5---*---|--------------------------|
Db :---------------5---5---|-*------------------------|
Ab :---9-9-9-7-----3---5---|-*-9-9-9-7-------9-9-9-7--|
Eb :*0-*-------7-0-----3---|-0-*-------7-0*0-*-------7|
                                                      


                                                       
Eb :-----------------------|---------------------------|
Bb :-----------------------|---------------------------|
Gb :----------------5---*--|*--------------------------|
Db :----------------5---5--|*--------------------------|
Ab :----9-9-9-7-----3---5--|*-9-9-9-7-------9-9-9-7----|
Eb :0*0-*-------7-0-----3--|0-*-------7-0*0-*-------7-0|
                                                       

                                                      
Eb :-----------------------|--------------------------|
Bb :-----------------------|--------------------------|
Gb :---------------5---*---|--------------------------|
Db :---------------5---5---|-*------------------------|
Ab :---9-9-9-7-----3---5---|-*-9-9-9-7-------9-9-9-7--|
Eb :*0-*-------7-0-----3---|-0-*-------7-0*0-*-------7|
                                                      

                            BRIDGE SECTION                            
Eb :-----------------------|----------------------------|
Bb :-----------------------|----------------------------|
Gb :----------------5---*--|----------------------------|
Db :----------------5---5--|*-------------0-*-----------|
Ab :----9-9-9-7-----3---5--|*-------0-2-3-*-------0-2-3-|
Eb :0*0-*-------7-0-----3--|0-0-2-3-*-------0-2-3-*-----|
                                                        

                                                             
Eb :----------------------------|----------------------------|
Bb :----------------------------|----------------------------|
Gb :----------------------------|----------------------------|
Db :--------------0-*-----------|--------------0-*-----------|
Ab :*-------0-2-3-*-------0-2-3-|*-------0-2-3-*-------0-2-3-|
Eb :0-0-2-3-*-------0-2-3-*-----|0-0-2-3-*-------0-2-3-*-----|
                                                             

                                                             
Eb :----------------------------|----------------------------|
Bb :----------------------------|----------------------------|
Gb :----------------------------|----------------------------|
Db :--------------0-*-----------|--------------0-*-----------|
Ab :*-------0-2-3-*-------0-2-3-|*-------0-2-3-*-------0-2-3-|
Eb :0-0-2-3-*-------0-2-3-*-----|0-0-2-3-*-------0-2-3-*-----|
                                                             

  



                                               
Eb :----------------------------|----------------|
Bb :----------------------------|----------------|
Gb :----------------------------|5---------------|
Db :--------------0-*-----------|5---------------|
Ab :*-------0-2-3-*-------0-2-3-|3---------------|
Eb :0-0-2-3-*-------0-2-3-*-----|----------------|
                                                 

                                PRECHORUS                         
Eb :----------------------------|----------------|----------------|
Bb :----------------------------|----------------|----------------|
Gb :*---------------------------|5-5-5-5-5-5-5-5-|7-7-7-7-7-7-7-7-|
Db :*-------------0-*-----------|5-5-5-5-5-5-5-5-|7-7-7-7-7-7-7-7-|
Ab :*-------0-2-3-*-------0-2-3-|3-3-3-3-3-3-3-3-|5-5-5-5-5-5-5-5-|
Eb :0-0-2-3-*-------0-2-3-*-----|----------------|----------------|
                                                                  

   CHO R U S                                           
Eb :---------------------------|-----------------------|
Bb :---------------------------|-----------------------|
Gb :*--------------------------|---------------5---*---|
Db :*--------------------------|---------------5---7---|
Ab :*-9-9-9-7-------9-9-9-7----|---9-9-9-7-----3---7---|
Eb :0-*-------7-0*0-*-------7-0|*0-*-------7-0-----5---|
                                                       

                                                      
Eb :--------------------------|-----------------------|
Bb :--------------------------|-----------------------|
Gb :--------------------------|----------------5---*--|
Db :-*------------------------|----------------5---7--|
Ab :-*-9-9-9-7-------9-9-9-7--|----9-9-9-7-----3---7--|
Eb :-0-*-------7-0*0-*-------7|0*0-*-------7-0-----5--|
                                                      

                                                              
Eb :--------------------|------------------|------------------|
Bb :--------------------|------------------|------------------|
Gb :--------------------|------------------|------------------|
Db :*-------------------|------------------|------------------|
Ab :*-------------------|------------------|------------------|
Eb :3-0-0-*--------3-3-3|3-0-0-*-----------|3-0-0-*-----------|
                                                              

                                                            
Eb :----------------|--------------------|------------------|
Bb :----------------|--------------------|------------------|
Gb :5---------------|--------------------|------------------|
Db :5---------------|*-------------------|------------------|
Ab :3---------------|*-------------------|------------------|
Eb :----------------|3-0-0-*--------3-3-3|3-0-0-*-----------|
                                                            

        


                                              * 
Eb :------------------|----------------|----------------|
Bb :------------------|----------------|----------------|
Gb :------------------|5---------------|---------------*|
Db :------------------|5---------------|---------------*|
Ab :------------------|3---------------|---------------*|
Eb :3-0-0-*-----------|----------------|----------------|
                                                        

   --END SONG       
Eb :----------------|
Bb :----------------|
Gb :----------------|
Db :----------------|
Ab :----------------|
Eb :----------------|
                    

Добавлено: 16.09.2013
Другие материалы по этой песне:
  • Аккорды и текст

Страница создана 14.05.2012
http://primanota.ru/carolines-spine/turned-blue-chords.htm
Привет, Гость.
Предлагаем пройти революционный курс по гитаре.
Подарок от PrimaNota.Ru, забирай!