PrimaNota.ru - самый крупный в мире бесплатный архив песенных текстов, аккордов, табулатур и нот


Carolines Spine - Ready, Set, Go - текст песни, таба, видео

Регистрация Запомнить меня
Войти через:  Facebook Google Twitter Vk Yandex Mail.ru

Carolines Spine - Ready, Set, Go - текст песни, таба, видео

Печатать
Просмотров: 117
Уроки эстрадного вокала в Санкт-Петербурге
Ready, Set, Go
Caroline's Spine

Tabbed by John Flemings
Prevost3000@netscape.net
Half step down
Original recording tabbed.
Work in progress, feel free to correct and add. Submit to me the new material and changes.


   I N T R O                                               
Eb :---------------------------|---------------------------|
Bb :---------------------------|---------------------------|
Gb :------0-----0-----0--------|------0-----0-----0--------|
Db :--7-----7-----7-----7-9----|--7-----7-----7-----7-9----|
Ab :0---0-----0-----0-------7-9|0---0-----0-----0-------7-9|
Eb :---------------------------|---------------------------|
                                                           

                                                           
Eb :---------------------------|---------------------------|
Bb :---------------------------|---------------------------|
Gb :---------------------------|---------------------------|
Db :---------------------------|---------------------------|
Ab :---------------------------|---------------------------|
Eb :---------------------------|---------------------------|

=============================================================================

                                                           
Eb :---------------------------|---------------------------|
Bb :---------------------------|---------------------------|
Gb :------0-----0-----0--------|------0-----0-----0--------|
Db :--7-----7-----7-----7-9----|--7-----7-----7-----7-9----|
Ab :0---0-----0-----0-------7-9|0---0-----0-----0-------7-9|
Eb :---------------------------|---------------------------|
                                                           

                                                           
Eb :---------------------------|---------------------------|
Bb :---------------------------|---------------------------|
Gb :---------------------------|---------------------------|
Db :---------------------------|---------------------------|
Ab :---------------------------|---------------------------|
Eb :---------------------------|---------------------------|

=============================================================================

   V E R SE  1  HE R E                                     
Eb :---------------------------|---------------------------|
Bb :---------------------------|---------------------------|
Gb :------0-----0-----0--------|------0-----0-----0--------|
Db :--7-----7-----7-----7-9----|--7-----7-----7-----7-9----|
Ab :0---0-----0-----0-------7-9|0---0-----0-----0-------7-9|
Eb :---------------------------|---------------------------|
                                                           

                                                           
Eb :---------------------------|---------------------------|
Bb :---------------------------|---------------------------|
Gb :---------------------------|---------------------------|
Db :---------------------------|---------------------------|
Ab :---------------------------|---------------------------|
Eb :---------------------------|---------------------------|

=============================================================================

                                                           
Eb :---------------------------|---------------------------|
Bb :---------------------------|---------------------------|
Gb :------0-----0-----0--------|------0-----0-----0--------|
Db :--7-----7-----7-----7-9----|--7-----7-----7-----7-9----|
Ab :0---0-----0-----0-------7-9|0---0-----0-----0-------7-9|
Eb :---------------------------|---------------------------|
                                                           

                                                           
Eb :---------------------------|---------------------------|
Bb :---------------------------|---------------------------|
Gb :---------------------------|---------------------------|
Db :---------------------------|---------------------------|
Ab :---------------------------|---------------------------|
Eb :---------------------------|---------------------------|

=============================================================================

                                                               
Eb :-----------------------------|-----------------------------|
Bb :-----------------------------|-----------------------------|
Gb :------0-------0-----0--------|------0-------0-----0--------|
Db :--7-------7-----7-----7-9----|--7-------7-----7-----7-9----|
Ab :0---0-------0-----0-------7-9|0---0-------0-----0-------7-9|
Eb :-----------------------------|-----------------------------|
                                                               

    Palm mutes where needed.                                                           
Eb :-----------------------------|-----------------------------|
Bb :-----------------------------|-----------------------------|
Gb :-----------------------------|-----------------------------|
Db :----9-*-9-----9*9-----7-9----|----9-*-9-----9*9-----7-9----|
Ab :0-0-7-*-7---0-7*7---0-----7-9|0-0-7-*-7---0-7*7---0-----7-9|
Eb :-----------------------------|-----------------------------|

=============================================================================

    clean tone, let ring out.                                                           
Eb :-----------------------------|-----------------------------|
Bb :-----------------------------|-----------------------------|
Gb :------0-------0-----0--------|------0-------0-----0--------|
Db :--7-------7-----7-----7-9----|--7-------7-----7-----7-9----|
Ab :0---0-------0-----0-------7-9|0---0-------0-----0-------7-9|
Eb :-----------------------------|-----------------------------|
                                                               

                                                               
Eb :-----------------------------|-----------------------------|
Bb :-----------------------------|-----------------------------|
Gb :-----------------------------|-----------------------------|
Db :----9-*-9-----9*9-----7-9----|----9-*-9-----9*9-----7-9----|
Ab :0-0-7-*-7---0-7*7---0-----7-9|0-0-7-*-7---0-7*7---0-----7-9|
Eb :-----------------------------|-----------------------------|

=============================================================================

   V E R S E   2  HE R E                                       
Eb :-----------------------------|-----------------------------|
Bb :-----------------------------|-----------------------------|
Gb :------0-------0-----0--------|------0-------0-----0--------|
Db :--7-------7-----7-----7-9----|--7-------7-----7-----7-9----|
Ab :0---0-------0-----0-------7-9|0---0-------0-----0-------7-9|
Eb :-----------------------------|-----------------------------|
                                                               

                                                               
Eb :-----------------------------|-----------------------------|
Bb :-----------------------------|-----------------------------|
Gb :-----------------------------|-----------------------------|
Db :----------------------9---9--|----------------------7-9----|
Ab :0-0-7-*-7---0-7*7---0-7---7--|0-0-7-*-7---0-7*7---0-----7-9|
Eb :-----------------------------|-----------------------------|

=============================================================================

                                                               
Eb :-----------------------------|-----------------------------|
Bb :-----------------------------|-----------------------------|
Gb :------0-------0-----0--------|------0-------0-----0--------|
Db :--7-------7-----7-----7-9----|--7-------7-----7-----7-9----|
Ab :0---0-------0-----0-------7-9|0---0-------0-----0-------7-9|
Eb :-----------------------------|-----------------------------|
                                                               

                                                               
Eb :-----------------------------|-----------------------------|
Bb :-----------------------------|-----------------------------|
Gb :-----------------------------|-----------------------------|
Db :----------------------7-9----|----------------------7-9----|
Ab :0-0-7-*-7---0-7*7---0-----7-9|0-0-7-*-7---0-7*7---0-----7-9|
Eb :-----------------------------|-----------------------------|

=============================================================================

    may not be sure about these chords.Interlude/Bridge section                                                           
Eb :----------------|----------------|-------------------------|
Bb :----------------|----------------|-------------------------|
Gb :7---------------|5-------7-------|-------------------------|
Db :7---------------|5-------7-------|------3-0-----------5----|
Ab :5---------------|3-------5-------|0-3-0-----3-0*0-3-0------|
Eb :----------------|----------------|-------------------------|
                                                               

                                                               
Eb :----------------|----------------|-------------------------|
Bb :----------------|----------------|-------------------------|
Gb :7---------------|5-------7-------|-------------------------|
Db :7---------------|5-------7-------|------3-0-----------5----|
Ab :5---------------|3-------5-------|0-3-0-----3-0*0-3-0------|
Eb :----------------|----------------|-------------------------|

=============================================================================

    



     Correct if necessary                                                      
Eb :-------------------------|----------------|----------------|
Bb :-------------------------|----------------|----------------|
Gb :-------------------------|7---------------|5-------7-------|
Db :------3-0-----------3----|7---------------|5-------7-------|
Ab :0-3-0-----3-0*0-3-0------|5---------------|3-------5-------|
Eb :-------------------------|----------------|----------------|
                                                               

                                                               
Eb :-------------------------|----------------|----------------|
Bb :-------------------------|----------------|----------------|
Gb :-------------------------|7---------------|5-------7-------|
Db :------3-0-----------3----|7---------------|5-------7-------|
Ab :0-3-0-----3-0*0-3-0------|5---------------|3-------5-------|
Eb :-------------------------|----------------|----------------|

=============================================================================

                                                                    
Eb :-----------------------|-----------------------|----------------|
Bb :-----------------------|-----------------------|----------------|
Gb :-----------------------|-----------------------|----------------|
Db :------3-----------5----|------3-----------3----|----------------|
Ab :0-3-0---3-0*0-3-0------|0-3-0---3-0*0-3-0------|----------------|
Eb :-----------------------|-----------------------|----------------|
                                                                    

                                                                    
Eb :-----------------------|-----------------------|----------------|
Bb :-----------------------|-----------------------|----------------|
Gb :-----------------------|-----------------------|----------------|
Db :------3-----------5----|------3-----------3----|----------------|
Ab :0-3-0---3-0*0-3-0------|0-3-0---3-0*0-3-0------|----------------|
Eb :-----------------------|-----------------------|----------------|

=============================================================================

              S OLO    PART    B  E  H  IN D   BRID 
Eb :-------------------|----------------------------|
Bb :------------11--/14|----14-15-17-15-14-14-15----|
Gb :-------------------|----------------------------|
Db :-------------------|----------------------------|
Ab :-------------------|----------------------------|
Eb :-------------------|----------------------------|
                                                    

              S OLO    PART    B  E  H  IN D   BRID 
Eb :-------------------|----------------------------|
Bb :------------11--/14|----14-15-17-15-14-14-15----|
Gb :-------------------|----------------------------|
Db :-------------------|----------------------------|
Ab :-------------------|----------------------------|
Eb :-------------------|----------------------------|

=============================================================================

    G  E                                                                 
Eb :-------------------------|----------------|--------------------------|
Bb :14-15-17-15-14---*-------|----------------|----11--/14----14-15-17-15|
Gb :---------------9-9-------|------7-7-----5-|5-*-----------------------|
Db :---------------9-9-*-----|------7-7-*---5-|5-*-----------------------|
Ab :---------------7-7-*-----|------5-5-*---3-|3-*-----------------------|
Eb :---------------0-0-*-----|----------*-----|--------------------------|
                                                                         

    G  E                                                                 
Eb :-------------------------|----------------|--------------------------|
Bb :14-15-17-15-14---*-------|----------------|----11--/14----14-15-17-15|
Gb :---------------9-9-------|------7-7-----5-|5-*-----------------------|
Db :---------------9-9-*-----|------7-7-*---5-|5-*-----------------------|
Ab :---------------7-7-*-----|------5-5-*---3-|3-*-----------------------|
Eb :---------------0-0-*-----|----------*-----|--------------------------|

=============================================================================

                                                                    
Eb :------------------------------|----------------|----------------|
Bb :14-14-h15----14-15-17-15-14---|*---------------|----------------|
Gb :----------------------------9-|9-------------7-|7-----5-5-*-----|
Db :----------------------------9-|9-*-----------7-|7-*---5-5-*-----|
Ab :----------------------------7-|7-*-----------5-|5-*---3-3-*-----|
Eb :----------------------------0-|0-*-------------|--*-------------|
                                                                    

                                                                    
Eb :------------------------------|----------------|----------------|
Bb :14-14-h15----14-15-17-15-14---|*---------------|----------------|
Gb :----------------------------9-|9-------------7-|7-----5-5-*-----|
Db :----------------------------9-|9-*-----------7-|7-*---5-5-*-----|
Ab :----------------------------7-|7-*-----------5-|5-*---3-3-*-----|
Eb :----------------------------0-|0-*-------------|--*-------------|


Добавлено: 02.06.2013
Вам также может быть интересно:
Другие материалы по этой песне:
  • Аккорды и текст

Страница создана 25.06.2012
http://primanota.ru/carolines-spine/ready-set-go-chords.htm
Привет, Гость.
Предлагаем пройти революционный курс по гитаре.
Подарок от PrimaNota.Ru, забирай!