PrimaNota.ru - самый крупный в мире бесплатный архив песенных текстов, аккордов, табулатур и нот


Carolines Spine - Quarter Century New - текст песни, таба, видео

Регистрация Запомнить меня
Войти через:  Facebook Google Twitter Vk Yandex Mail.ru

Carolines Spine - Quarter Century New - текст песни, таба, видео

Печатать
Просмотров: 84
Quarter Century New
Caroline's Spine

Standard Tuning
Acoustic version tabbed here
Prevost3000@netscape.net
Enjoy.


E  :----0-----------|----0-----2-0---|----0-----------|----0-----2-0---|
B  :----------------|----------------|----------------|----------------|
G  :--------2-------|------2---------|--------2-------|------2---------|
D  :0---------------|0---------------|----------------|----------------|
A  :----------------|----------------|2---------------|2---------------|
E  :----------------|----------------|----------------|----------------|
   THIS IS THE ACOUSTIC VERSION OF QCN.THE STUDIO RELEASE IS DIFFERENT 

E  :2---0-----------|2---0-----------|2---0-----------|2---0-----------|
B  :--------3-2-----|--------3-2-----|--------3-2-----|--------3-2-----|
G  :------------2-0-|------------2-0-|------------2-0-|------------2-0-|
D  :----------------|----------------|----------------|----------------|
A  :0-------0-------|0-------0-------|----------------|----------------|
E  :----------------|----------------|3-------3-------|3-------3-------|
   BY A BIT.   I WILL IMPROVE  THIS IN TIME.  CHECK BACK FOR UP 

E  :----0-----------|----0-----2-0---|----0-----------|----0-----2-0---|
B  :----------------|----------------|----------------|----------------|
G  :--------2-------|------2---------|--------2-------|------2---------|
D  :0---------------|0---------------|----------------|----------------|
A  :----------------|----------------|2---------------|2---------------|
E  :----------------|----------------|----------------|----------------|
   DATES.  MARK IS  PLAYING AND JIM  IS SINGING.                       

E  :2---0-----------|2---0-----------|2---0-----------|2---0-----------|
B  :--------3-2-----|--------3-2-----|--------3-2-----|--------3-2-----|
G  :------------2-0-|------------2-0-|------------2-0-|------------2-0-|
D  :----------------|----------------|----------------|----------------|
A  :0-------0-------|0-------0-------|----------------|----------------|
E  :----------------|----------------|3-------3-------|3-------3-------|
                                                                       

E  :----0-----------|----0-----2-0---|----0-----------|----0-----2-0---|
B  :----------------|----------------|----------------|----------------|
G  :--------2-------|------2---------|--------2-------|------2---------|
D  :0---------------|0---------------|----------------|----------------|
A  :----------------|----------------|2---------------|2---------------|
E  :----------------|----------------|----------------|----------------|
   VERSE 1                                                             

E  :2---0-----------|2---0-----------|2---0-----------|2---0-----------|
B  :--------3-2-----|--------3-2-----|--------3-2-----|--------3-2-----|
G  :------------2-0-|------------2-0-|------------2-0-|------------2-0-|
D  :----------------|----------------|----------------|----------------|
A  :0-------0-------|0-------0-------|----------------|----------------|
E  :----------------|----------------|3-------3-------|3-------3-------|
                                                                       



E  :----0-----------|----0-----2-0---|----0-----------|----0-----2-0---|
B  :----------------|----------------|----------------|----------------|
G  :--------2-------|------2---------|--------2-------|------2---------|
D  :0---------------|0---------------|----------------|----------------|
A  :----------------|----------------|2---------------|2---------------|
E  :----------------|----------------|----------------|----------------|
                                                                       

E  :2---0-----------|2---0-----------|2---0-----------|2---0-----------|
B  :--------3-2-----|--------3-2-----|--------3-2-----|--------3-2-----|
G  :------------2-0-|------------2-0-|------------2-0-|------------2-0-|
D  :----------------|----------------|----------------|----------------|
A  :0-------0-------|0-------0-------|----------------|----------------|
E  :----------------|----------------|3-------3-------|3-------3-------|
                                                                       

E  :--------2-----2-|----2-----2-----|2---0-----------|2---0-----------|
B  :----3-----3-----|3-----3-----3---|--------3-2-----|--------3-2-----|
G  :--2---2-----2---|--2-----2-----2-|------------2-0-|------------2-0-|
D  :0---------------|----------------|----------------|----------------|
A  :----------------|----------------|0-------0-------|0-------0-------|
E  :----------------|----------------|----------------|----------------|
   PRECHORUS  1                                                        

E  :--------2-----2-|----2-----2-----|2---0-----------|2---0-----------|
B  :----3-----3-----|3-----3-----3---|--------3-2-----|--------3-2-----|
G  :--2---2-----2---|--2-----2-----2-|------------2-0-|------------2-0-|
D  :0---------------|----------------|----------------|----------------|
A  :----------------|----------------|0-------0-------|----------------|
E  :----------------|----------------|----------------|3-------3-------|
                                                                       

E  :----------------|----------------|2---0-----------|2---0-----------|
B  :--------2---3---|----2---3---5---|--------3-2-----|--------3-2-----|
G  :----4-----4-----|2---------------|------------2-0-|------------2-0-|
D  :--4---4---------|2---------------|----------------|----------------|
A  :2---------------|0---------------|----------------|----------------|
E  :----------------|----------------|3-------3-------|3-------3-------|
   CHORUS 1                                                            

E  :----------------|----------------|2---0-----------|2---0-----------|
B  :--------2---3---|----2---3---5---|--------3-2-----|--------3-2-----|
G  :----4-----4-----|2---------------|------------2-0-|------------2-0-|
D  :--4---4---------|2---------------|----------------|----------------|
A  :2---------------|0---------------|----------------|----------------|
E  :----------------|----------------|3-------3-------|3-------3-------|
                                                                       

E  :----------------|----------------|2---0-----------|2---0-----------|
B  :--------2---3---|----2---3---5---|--------3-2-----|--------3-2-----|
G  :----4-----4-----|2---------------|------------2-0-|------------2-0-|
D  :--4---4---------|2---------------|----------------|----------------|
A  :2---------------|0---------------|----------------|----------------|
E  :----------------|----------------|3-------3-------|3-------3-------|
                                                                       

E  :----------------|----------------|2---0-----------|2---0-----------|
B  :--------2---3---|----2---3---5---|--------3-2-----|--------3-2-----|
G  :----4-----4-----|2---------------|------------2-0-|------------2-0-|
D  :--4---4---------|2---------------|----------------|----------------|
A  :2---------------|0---------------|----------------|0-------0-------|
E  :----------------|----------------|3-------3-------|----------------|
                                                              ...quart 

E  :----------------|----------------|
B  :3-----3--*--3---|----------------|
G  :4-----4--*--4---|----------------|
D  :4-----4--*--4---|----------------|
A  :2-----2--*--2---|--------2---4---|
E  :----------------|----------------|
   er century new.. ..               

E  :----0-----------|----0-----2-0---|----0-----------|----0-----2-0---|
B  :----------------|----------------|----------------|----------------|
G  :--------2-------|------2---------|--------2-------|------2---------|
D  :0---------------|0---------------|----------------|----------------|
A  :----------------|----------------|2---------------|2---------------|
E  :----------------|----------------|----------------|----------------|
                                                                       

E  :2---0-----------|2---0-----------|2---0-----------|2---0-----------|
B  :--------3-2-----|--------3-2-----|--------3-2-----|--------3-2-----|
G  :------------2-0-|------------2-0-|------------2-0-|------------2-0-|
D  :----------------|----------------|----------------|----------------|
A  :0-------0-------|0-------0-------|----------------|----------------|
E  :----------------|----------------|3-------3-------|3-------3-------|
                                                                       

E  :----0-----------|----0-----2-0---|----0-----------|----0-----2-0---|
B  :----------------|----------------|----------------|----------------|
G  :--------2-------|------2---------|--------2-------|------2---------|
D  :0---------------|0---------------|----------------|----------------|
A  :----------------|----------------|2---------------|2---------------|
E  :----------------|----------------|----------------|----------------|
                                                                       

E  :2---0-----------|2---0-----------|2---0-----------|2---0-----------|
B  :--------3-2-----|--------3-2-----|--------3-2-----|--------3-2-----|
G  :------------2-0-|------------2-0-|------------2-0-|------------2-0-|
D  :----------------|----------------|----------------|----------------|
A  :0-------0-------|0-------0-------|----------------|----------------|
E  :----------------|----------------|3-------3-------|3-------3-------|
                                                                       

E  :----0-----------|----0-----2-0---|----0-----------|----0-----2-0---|
B  :----------------|----------------|----------------|----------------|
G  :--------2-------|------2---------|--------2-------|------2---------|
D  :0---------------|0---------------|----------------|----------------|
A  :----------------|----------------|2---------------|2---------------|
E  :----------------|----------------|----------------|----------------|
                                                                       

E  :2---0-----------|2---0-----------|2---0-----------|2---0-----------|
B  :--------3-2-----|--------3-2-----|--------3-2-----|--------3-2-----|
G  :------------2-0-|------------2-0-|------------2-0-|------------2-0-|
D  :----------------|----------------|----------------|----------------|
A  :0-------0-------|0-------0-------|----------------|----------------|
E  :----------------|----------------|3-------3-------|3-------3-------|
                                                                       

E  :----0-----------|----0-----2-0---|----0-----------|----0-----2-0---|
B  :----------------|----------------|----------------|----------------|
G  :--------2-------|------2---------|--------2-------|------2---------|
D  :0---------------|0---------------|----------------|----------------|
A  :----------------|----------------|2---------------|2---------------|
E  :----------------|----------------|----------------|----------------|
                                                                       

E  :2---0-----------|2---0-----------|2---0-----------|2---0-----------|
B  :--------3-2-----|--------3-2-----|--------3-2-----|--------3-2-----|
G  :------------2-0-|------------2-0-|------------2-0-|------------2-0-|
D  :----------------|----------------|----------------|----------------|
A  :0-------0-------|0-------0-------|----------------|----------------|
E  :----------------|----------------|3-------3-------|3-------3-------|
                                                                       

E  :--------2-----2-|----2-----2-----|2---0-----------|2---0-----------|
B  :----3-----3-----|3-----3-----3---|--------3-2-----|--------3-2-----|
G  :--2---2-----2---|--2-----2-----2-|------------2-0-|------------2-0-|
D  :0---------------|----------------|----------------|----------------|
A  :----------------|----------------|0-------0-------|0-------0-------|
E  :----------------|----------------|----------------|----------------|
   PRECHORUS 2                                                         

E  :--------2-----2-|----2-----2-----|2---0-----------|2---0-----------|
B  :----3-----3-----|3-----3-----3---|--------3-2-----|--------3-2-----|
G  :--2---2-----2---|--2-----2-----2-|------------2-0-|------------2-0-|
D  :0---------------|----------------|----------------|----------------|
A  :----------------|----------------|0-------0-------|----------------|
E  :----------------|----------------|----------------|3-------3-------|
                                                                       

E  :----------------|----------------|2---0-----------|2---0-----------|
B  :--------2---3---|----2---3---5---|--------3-2-----|--------3-2-----|
G  :----4-----4-----|2---------------|------------2-0-|------------2-0-|
D  :--4---4---------|2---------------|----------------|----------------|
A  :2---------------|0---------------|----------------|----------------|
E  :----------------|----------------|3-------3-------|3-------3-------|
   CHORUS                                                              

E  :----------------|----------------|2---0-----------|2---0-----------|
B  :--------2---3---|----2---3---5---|--------3-2-----|--------3-2-----|
G  :----4-----4-----|2---------------|------------2-0-|------------2-0-|
D  :--4---4---------|2---------------|----------------|----------------|
A  :2---------------|0---------------|----------------|----------------|
E  :----------------|----------------|3-------3-------|3-------3-------|
                                                                       

E  :----------------|----------------|2---0-----------|2---0-----------|
B  :--------2---3---|----2---3---5---|--------3-2-----|--------3-2-----|
G  :----4-----4-----|2---------------|------------2-0-|------------2-0-|
D  :--4---4---------|2---------------|----------------|----------------|
A  :2---------------|0---------------|----------------|----------------|
E  :----------------|----------------|3-------3-------|3-------3-------|
                                                                       

E  :----------------|----------------|2---0-----------|2---0-----------|
B  :--------2---3---|----2---3---5---|--------3-2-----|--------3-2-----|
G  :----4-----4-----|2---------------|------------2-0-|------------2-0-|
D  :--4---4---------|2---------------|----------------|----------------|
A  :2---------------|0---------------|----------------|0-------0-------|
E  :----------------|----------------|3-------3-------|----------------|
                                                                       

E  :----------------|----------------|----------------|----------------|
B  :3-----3--*--3---|---------------*|----------------|----------------|
G  :4-----4--*--4---|---------------*|----------------|----------------|
D  :4-----4--*--4---|---------------*|----------------|----------------|
A  :2-----2--*--2---|---------------*|----------------|----------------|
E  :----------------|----------------|----------------|----------------|
                              END OF  SONG. REPEAT FO R FUN AT SPINE F 

E  :----------------|
B  :----------------|
G  :----------------|
D  :----------------|
A  :----------------|
E  :----------------|
   UNCTIONS         

Добавлено: 17.07.2013
Другие материалы по этой песне:
  • Аккорды и текст

Страница создана 12.05.2012
http://primanota.ru/carolines-spine/quarter-century-new-chords.htm
Привет, Гость.
Предлагаем пройти революционный курс по гитаре.
Подарок от PrimaNota.Ru, забирай!